Song name
# A B C D E F G H I J K L M N O P Q R S T U V W X Y Z

Nizlopi - Jcb Song tab

##NOTE: This song's difficulty is set at Advanced because of the complex
It's not impossible to learn. But it's not for the faint of heart either.

##ALSO: I'm not going to give the entire song and repeat tab after tab for those who
to have a songbook. I'm giving the basic parts. The idea here is to have something that
the CD with which to play along. I'll leave it in your hands to 1) learn the patterns 
2) assemble the lyrics.

--------------------------------------------------------------
JCB Song - Nizlopi
--------------------------------------------------------------

Tabbed by: Bob Lavallee
Email: boblavalleeREMOVE@hotmail dot com

Tuning: Drop D Tuning
Capo: 5th Fret

This is based on the original song from the album. Some tabs "sound" like the
with some exceptions here and there. This version just sounds like the original.

The ending part is simply the chorus strummed.


INTRO:
   D add2                   D add2/A
e|-------------0----------|-------------0----------|
B|-------2--------2-------|-------2--------2-----2-|
G|----4-----4--------4----|----4-----4--------4----|
D|----------------------2-|------------------------|
A|-0----------------------|------------------------|
E|------------------------|-2----------------------|
 1                        2 Thumb

INTRO:
   D add2                   D add2/A
e|-------------0----------|------------------------|
B|-------2--------2-------|-------2----------------|
G|----4-----4--------4----|----4-------------------|
D|----------------------2-|------------------------|
A|-0----------------------|------------------------|
E|------------------------|-2----------------------|
 3                        4 Thumb     (Well, I'm...)

VERSE:
   D add2                   D add2/A
e|-------------0----------|-------------0----------|
B|-------2--------2-------|-------2--------2-----2-|
G|----4-----4--------4----|----4-----4--------4----|
D|----------------------2-|------------------------|
A|-0----------------------|------------------------|
E|------------------------|-2----------------------|
 5 (rumbling on this...)  6

   D add2                   D add2/A
e|-------------0----------|-------------0----------|
B|-------2--------2-------|-------2--------2-----2-|
G|----4-----4--------4----|----4-----4--------4----|
D|----------------------2-|------------------------|
A|-0----------------------|------------------------|
E|------------------------|-2----------------------|
 7(five years old...)     8

   G6                       G6/A
e|------------------------|------------------------|
B|------------------------|-------------0----------|
G|-------2----------------|-------2--------2-----2-|
D|----0-----0-----0-----0-|----2-----2--------2----|
A|------------------------|------------------------|
E|-0-----------------0----|-2----------------------|
 9 (engine rattles my...) 10

   G6                       G6/A
e|------------------------|------------------------|
B|-------------0----------|-------------0----------|
G|-------2--------2-----2-|-------2--------2-----2-|
D|----0-----0--------0----|----2-----2--------2----|
A|------------------------|------------------------|
E|-0----------------------|-2----------------------|
 11 (Don't forget your...)12

Repeat above patterns (bars 5 - 12) to complete the verse.

CHORUS:
   G6                       G6/A
e|------------------------|------------------------|
B|------------------------|-------------0----------|
G|-------2----------------|-------2--------2-----2-|
D|----0-----0-----0-----0-|----2-----2--------2----|
A|------------------------|------------------------|
E|-0-----------------0----|-2----------------------|
  (bypass oh oh...)

   G6                       G6/A
e|------------------------|------------------------|
B|-------------0----------|-------------0----------|
G|-------2--------2-----2-|-------2--------2-----2-|
D|----0-----0--------0----|----2-----2--------2----|
A|------------------------|------------------------|
E|-0----------------------|-2----------------------|
  (top laugh, oh...)

Repeat above G6 G6/A patterns to complete the chorus.

That's the basic framework.
Tap to rate this tab
# A B C D E F G H I J K L M N O P Q R S T U V W X Y Z