Song name
# A B C D E F G H I J K L M N O P Q R S T U V W X Y Z

Nlt - She Can Get It tab

Help us improve GuitareTab! Take a short survey!
----------------------------------------------------------------------------
			   She Can Get It - NLT
----------------------------------------------------------------------------
Tabbed by:Me[[nltlover4life]]
Email:nlt-lover@live.com

Well this is my first tab and the first song i have tabbed by ear... uh i might not be
but this is what sounds right to me... but please correct me if i am wrong... and for
reason it doesn't sound right unless you play it with the song... well to me anyways... 
i hope it is right.... and i hope you enjoy...

Tuning:Standard

e|-------------------------------------------------------------------------|
B|-------------------------------------------------------------3---4-------|
G|-------3-2-----3-2-------3-2-----3-2-------3-2-----3-2-----3---4---3-4---|
D|-----5-----------------5-----------------5-------------------------------|
A|---3---------3-------3---------3-------3---------3-------3---------------|
E|-3---------3-------3---------3-------3---------3-------3-----------------|
And this is basically the whole song right here...
Related for She Can Get It tab