Song name
# A B C D E F G H I J K L M N O P Q R S T U V W X Y Z

Nneka - Heartbeat Chase And Status tab

This is my First tab so sorry if its not that good but it should be pretty accurate


Bass Intro

E|----------------------------------------------------------------------|
B|----------------------------------------------------------------------|
G|----------------------------------------------------------------------|
D|----------------------------------------------------------------------|
A|----------------------------------------------------------------------|
D|-----9-9-9-9-9-9-9-9-9-9-9-9-9-9-9-5-5-5-5-5-5-5-5-7-7-7-7-7-7-7-7----|

This riff is repeated pretty much throughout the song

E|----------------------------------------------------------------------|
B|----------------------------------------------------------------------|
G|-------7~-------6~-------4~-------6~----------------------------------|
D|-----9---------7--------5--------7------------------------------------|
A|-----9---------7--------5--------7------------------------------------|
D|-----9---------7--------5--------7------------------------------------|


Outro

E|----------------------------------------------------------------------|
B|----------------------------------------------------------------------|
G|----------------------------------------------------------------------|
D|-----9---9---9---------------7---7---7--------------------------------|
A|-----9---9---9---9-9-9999----7---7---7--------------------------------|
D|-----9---9---9---9-9-9999----7---7---7-////////////-------------------|
                   x x xxxx

E|----------------------------------------------------------------------|
B|----------------------------------------------------------------------|
G|--------------4~--------------6~---------------7~-----------------9~--|
D|-----5---5---5-------7---7---7--------9---9---9-------11---11---11----|
A|-----5---5---5-------7---7---7--------9---9---9-------11---11---11----|
D|-----5---5---5-------7---7---7--------9---9---9-------11---11---11----|

E|----------------------------------------------------------------------|
B|----------------------------------------------------------------------|
G|--------------4~--------------6~--------------------------------------|
D|-----5---5---5-------7---7---7----------------------------------------|
A|-----5---5---5-------7---7---7----------------------------------------|
D|-----5---5---5-------7---7---7----------------------------------------|

Then this plays in the background

E|----------------------------------------------------------------------|
B|----------------------------------------------------------------------|
G|----------------------------------------------------------------------|
D|-----9--9--9--9--7--7--7--7--5--5--5--5--7--7--7--7-------------------|
A|-----9--9--9--9--7--7--7--7--5--5--5--5--7--7--7--7-------------------|
D|-----9--9--9--9--7--7--7--7--5--5--5--5--7--7--7--7-------------------|

| /  slide up
| \  slide down
| h  hammer-on
| p  pull-off
| ~  vibrato
| +  harmonic
| x  Mute note
============================================================================
Tap to rate this tab
# A B C D E F G H I J K L M N O P Q R S T U V W X Y Z