Nneka - Heartbeat Chase And Status tab

Nneka - Heartbeat (Chase n Status Remix) - Guitar & Bass TAB

You can find the song on YouTube.
http://www.youtube.com/watch?v=eFwv7LaSDuc

I've used the 2nd version TAB of this song to make this one (; Thanks a lot!

0:33

E|------------------------------------------------------------------|
B|----------You can use palm muting for the bass effect-------------|
G|----------Play this part 4 times----------------------------------|
D|------------------------------------------------------------------|
A|------------------------------------------------------------------|
D|-9-9-9-9-9-9-9-9-9-9-9-9-9-9-9-9-5-5-5-5-5-5-5-5-7-7-7-7-7-7-7-7--|

The second time you play this part, an electric guitar comes in using palm muting.

0:59

E|------------------------------------------------------------------|
B|------------------------------------------------------------------|
G|------------------------------------------------------------------|
D|------------------------------------------------------------------|
A|------------------------------------------------------------------|
D|--15\3------------------------------------------------------------|

1:00

E|------------------------------------------------------------------|
B|------------------------------------------------------------------|
G|----------------7~-----6~---------4~----------6~------------------|
D|--------------99-----77---------55----------77--------------------|
A|--------------99-----77---------55----------77--------------------|
D|--------------99-----77--15\5---55---3/7----77--------------------|

1:06

E|------------------------------------------------------------------|
B|------------------------------------------------------------------|
G|----------------7~-----6~---------4~------------------------------|
D|--------------99-----77---------55----------77--------------------|
A|--------------99-----77---------55----------77------MUTE----------|
D|--------------99-----77--15\5---55---3/7----77--------------------|

1:13

E|------------------------------------------------------------------|
B|------------------------------------------------------------------|
G|----------------7~-----6~---------4~----------6~------------------|
D|--------------99-----77---------55----------77--------------------|
A|--------------99-----77---------55----------77--------------------|
D|--------------99-----77--15\5---55---3/7----77--------------------|

1:20

E|------------------------------------------------------------------|
B|------------------------------------------------------------------|
G|----------------7~-----6~---------4~------------------------------|
D|--------------99-----77---------55----------77--------------------|
A|--------------99-----77---------55----------77------MUTE----------|
D|--------------99-----77--15\5---55---3\7----77--------------------|

1:26

E|------------------------------------------------------------------|
B|----------You can use palm muting for the bass effect-------------|
G|----------Play this part 4 times----------------------------------|
D|------------------------------------------------------------------|
A|------------------------------------------------------------------|
D|-9-9-9-9-9-9-9-9-9-9-9-9-9-9-9-9-5-5-5-5-5-5-5-5-7-7-7-7-7-7-7-7--|

1:53

E|------------------------------------------------------------------|
B|------------------------------------------------------------------|
G|----------------7~-----6~---------4~---------6~-------------------|
D|--------------99-----77---------55---------77---------------------|
A|--------------99-----77---------55---------77---------------------|
D|--------------99-----77--15\5---55---3/7---77---------------------|

2:00

E|------------------------------------------------------------------|
B|------------------------------------------------------------------|
G|----------------7~-----6~---------4~------------------------------|
D|--------------99-----77---------55----------77--------------------|
A|--------------99-----77---------55----------77------MUTE----------|
D|--------------99-----77--15\5---55---3/7----77--------------------|

2:07

E|------------------------------------------------------------------|
B|------------------------------------------------------------------|
G|----------------7~-----6~---------4~---------6~-------------------|
D|--------------99-----77---------55---------77---------------------|
A|--------------99-----77---------55---------77---------------------|
D|--------------99-----77--15\5---55---3/7---77---------------------|

2:14

E|------------------------------------------------------------------|
B|------------------------------------------------------------------|
G|----------------7~-----6~---------4~------------------------------|
D|--------------99-----77---------55----------77--------------------|
A|--------------99-----77---------55----------77------MUTE----------|
D|--------------99-----77--15\5---55---3/7----77--------------------|

2:19

Quiet part. You can put a solo in here? :D

2:47

E|------------------------------------------------------------------|
B|----------You can use palm muting for the bass effect-------------|
G|----------Play this part 3 times----------------------------------|
D|------------------------------------------------------------------|
A|------------------------------------------------------------------|
D|-9-9-9-9-9-9-9-9-9-9-9-9-9-9-9-9-5-5-5-5-5-5-5-5-7-7-7-7-7-7-7-7--|

3:07

E|------------------------------------------------------------------|
B|----------You can use palm muting for the bass effect-------------|
G|------------------------------------------------------------------|
D|------------------------------------------------------------------|
A|------------------------------------------------------------------|
D|-9-9-9-9-9-9-9-9-9-9-9-9-9-9-9-9-5-5-5-5-5-5-5-5------------------|

3:13

E|------------------------------------------------------------------|
B|------------------------------------------------------------------|
G|-------------------------------4~-----------------------------7~--|
D|-9-99-XX-XXXX-7-7-7-------5-5-5----------7-7-7---------9-9-9-9----|
A|-9-99-XX-XXXX-7-7-7-------5-5-5----------7-7-7---------9-9-9-9----|
D|-9-99-XX-XXXX-7-7-7--15\3/5-5-5---10\5---7-7-7--15\3---9-9-9-9----|

E|------------------------------------------------------------------|
B|------------------------------------------------------------------|
G|-------------9~--------(4~)---------------------------------------|
D|-/11-11-11-11----5--5--5--5--7--7---------------------------------|
A|-/11-11-11-11----5--5--5--5--7--7-----MUTE------------------------|
D|-/11-11-11-11----5--5--5--5--7--7---------------------------------|

03:26

E|------------------------------------------------------------------|
B|------------------------------------------------------------------|
G|--------------------------(6~)------------------------------------|
D|-9-9-9-9-9-9-9-9-7-7-7-7-7-7-7-7-5-5-5-5-5-5-5-5-7-7-7-7-7-7-7-7--|
A|-9-9-9-9-9-9-9-9-7-7-7-7-7-7-7-7-5-5-5-5-5-5-5-5-7-7-7-7-7-7-7-7--|
D|-9-9-9-9-9-9-9-9-7-7-7-7-7-7-7-7-5-5-5-5-5-5-5-5-7-7-7-7-7-7-7-7--|

3:33

E|-------------------------------------------------------------------|
B|-------------------------------------------------------------------|
G|---------(7~)-------------------(9~)-----------------(4~)----------|(6~)
D|-9-9-9-9-9-9-9-9-11-11-11-11-11-11-11-11-5-5-5-5-5-5-5-5-7-7-7-7---|
A|-9-9-9-9-9-9-9-9-11-11-11-11-11-11-11-11-5-5-5-5-5-5-5-5-7-7-7-7---|
D|-9-9-9-9-9-9-9-9-11-11-11-11-11-11-11-11-5-5-5-5-5-5-5-5-7-7-7-7---|

3:40

E|------------------------------------------------------------------|
B|------------------------------------------------------------------|
G|------------------------------------------------------------------|
D|-9-9-9-9-9-9-9-9-9-9-9-9-9-9-9-9-5-5-5-5-5-5-5-5-7-7-7-7-7-7-7-7--|
A|-9-9-9-9-9-9-9-9-9-9-9-9-9-9-9-9-5-5-5-5-5-5-5-5-7-7-7-7-7-7-7-7--|
D|-9-9-9-9-9-9-9-9-9-9-9-9-9-9-9-9-5-5-5-5-5-5-5-5-7-7-7-7-7-7-7-7--|

3:47

E|------------------------------------------------------------------|
B|------------------------------------------------------------------|
G|--------------------------------------------------(4~)------------|
D|-9-9-9-9-9-9-9-9-11-11-11-11-11-11-11-11-5-5-5-5-5-5-5-5----------|
A|-9-9-9-9-9-9-9-9-11-11-11-11-11-11-11-11-5-5-5-5-5-5-5-5---MUTE---|
D|-9-9-9-9-9-9-9-9-11-11-11-11-11-11-11-11-5-5-5-5-5-5-5-5----------|
Tap to rate this tab
 
# A B C D E F G H I J K L M N O P Q R S T U V W X Y Z