Song name
# A B C D E F G H I J K L M N O P Q R S T U V W X Y Z

Nneka - Do You Love Me Now chords

One 2fr           One 7fr "This is the same thing on the 2fr"
e------2---------   --------2---------|
B------3---------   --------3---------|
G------2---------   --------2---------|
D------0---------   --------0---------|
A------2---------   --------2---------|
E------0---------   --------0---------|
One 2-3 fr
e------0---------|
B------3---------|
G------4---------|
D------0---------|
A------2---------|
E------3---------|

Chorus
One 2fr              One 2fr too
e------2---------   --------0---------|
B------3---------   --------3---------|
G------2---------   --------0---------|
D------0---------   --------2---------|
A------2---------   --------2---------|
E------0---------   --------0---------|

e------0---------   --------0-----------|
B------3---------   --------2-----------|
G------4---------   --------3-----------|
D------4---------   --------2-----------|
A------0---------   --------0-----------|
E------3---------   --------2-----------|
Tap to rate this tab
# A B C D E F G H I J K L M N O P Q R S T U V W X Y Z