Song name
# A B C D E F G H I J K L M N O P Q R S T U V W X Y Z

No Age - Ripped Knees tab

-------------------------------------------------------------------------------
			     Ripped Knees - No Age
-------------------------------------------------------------------------------
Tabbed by: KF
Email:electroshockjazz@hotmail.co.uk

Tuning: Standard

A basic couple of chords, strum-as-hard-as-you-can, song.

Intro 
  A   E      x3 A       E
e|0-0-0------|--0-0-0---0---0---0---|
B|2-2-0----*-|--2-2-2---0---0---0---|
G|2-2-1------|--2-2-2---1---1---1---|
D|2-2-2------|--2-2-2---2---2---2---|
A|0-0-2----*-|--0-0-0---2---2---2---|
E|----0------|----------0---0---0---|

The rest of the Song:
 Dm               C               F               G
e|1-1-1-1-1-1-1-1-0-0-0-0-0-0-0-0-1-1-1-1-1-1-1-1-3-3-3-3-3-3-3-3-|
B|3-3-3-3-3-3-3-3-1-1-1-1-1-1-1-1-1-1-1-1-1-1-1-1-0-0-0-0-0-0-0-0-|
G|2-2-2-2-2-2-2-2-0-0-0-0-0-0-0-0-2-2-2-2-2-2-2-2-0-0-0-0-0-0-0-0-|
D|0-0-0-0-0-0-0-0-2-2-2-2-2-2-2-2-3-3-3-3-3-3-3-3-0-0-0-0-0-0-0-0-|
A|----------------3-3-3-3-3-3-3-3-3-3-3-3-3-3-3-3-2-2-2-2-2-2-2-2-|
E|--------------------------------1-1-1-1-1-1-1-1-3-3-3-3-3-3-3-3-|

The Brief Interlude:
  A               G
e|5-5-5-5-5-5-5-5-3-3-3-3-3-3-3-3-|
B|5-5-5-5-5-5-5-5-3-3-3-3-3-3-3-3-|
G|6-6-6-6-6-6-6-6-4-4-4-4-4-4-4-4-|
D|7-7-7-7-7-7-7-7-5-5-5-5-5-5-5-5-|
A|7-7-7-7-7-7-7-7-5-5-5-5-5-5-5-5-| two or four times (maybe)
E|5-5-5-5-5-5-5-5-3-3-3-3-3-3-3-3-|

And then back to the main one. And remember and 
include a couple of basic rhythmic changes once the end of the song looms.

And there is also a wierd feedback (Possibly even a distorted organ) coda which
is completely untabbable 
but here's what, through the thick fug of noise, seems to be the root notes.

                                        detune
D|--------0----------------0--------5-----(3)----5--|
A|2---------------2---------------------------------|
E|--------------------------------------------------|
 
www.myspace.com/nonoage



Tap to rate this tab
# A B C D E F G H I J K L M N O P Q R S T U V W X Y Z