Song name
# A B C D E F G H I J K L M N O P Q R S T U V W X Y Z

No Age - Teen Creeps tab

E --10-10-10----10---8---7----5------------------------------------------------|
B -----------------------------------------------------------------------------|
G -----------------------------------------------------------------------------|
D  ----------------------------------------------------------------------------|
A  ----------------------------------------------------------------------------|
E  ----------------------------------------------------------------------------|

E--------------------------------------------------------------------|
B--------------------------------------------------------------------|
G --4--------------12-12-12-12-12-11-11-11--12-12-12-12-12-14-14-14--|
D --5---x lots-----12-12-12-12-12-12-12-12--12-12-12-12-12-12-12-12--|
A --5----------------------------------------------------------------|
E --3----------------------------------------------------------------|
Tap to rate this tab
# A B C D E F G H I J K L M N O P Q R S T U V W X Y Z