Song name
# A B C D E F G H I J K L M N O P Q R S T U V W X Y Z

No Age - Ripped Knees tab

-------------------------------------------------------------------------------
                             RIPPED KNEES - No Age
-------------------------------------------------------------------------------

Tabbed by:Delz

Tuning:Standard EADGBe
Bright EQ and lots of Fuzz

Intro:
   A   E         A   E         A   E         A   E
e|-0-0-0~------|-0-0-0~------|-0-0-0~------|-0-0-0---0---0---0---|
B|-2-2-0~------|-2-2-0~------|-2-2-0~------|-2-2-0---0---0---0---|
G|-2-2-1~------|-2-2-1~------|-2-2-1~------|-2-2-1---1---1---1---|
D|-2-2-2~------|-2-2-2~------|-2-2-2~------|-2-2-2---2---2---2---|
A|-0-0-2~------|-0-0-2~------|-0-0-2~------|-0-0-2---2---2---2---|
E|-----0~------|-----0~------|-----0~------|-----0---0---0---0---|
      (let ring)

Verse:

   Dm               Am               C                G
e|-1-1-1--1-1-1-1-|-0-0-0--0-0-0-0-|-0-0-0--0-0-0-0-|-3-3-3--3-3-3-3-|
B|-3-3-3--3-3-3-3-|-1-1-1--1-1-1-1-|-1-1-1--1-1-1-1-|-0-0-0--0-0-0-0-|
G|-2-2-2--2-2-2-2-|-2-2-2--2-2-2-2-|-0-0-0--0-0-0-0-|-0-0-0--0-0-0-0-|
D|-0-0-0--0-0-0-0-|-2-2-2--2-2-2-2-|-2-2-2--2-2-2-2-|-0-0-0--0-0-0-0-|
A|----------------|-0-0-0--0-0-0-0-|-3-3-3--3-3-3-3-|-2-2-2--2-2-2-2-|
E|----------------|----------------|----------------|-3-3-3--3-3-3-3-|(x4)


Interlude 1:
   A                 G                
e|-0-0-0-0-0-0-0-0-|-3-3-3-3-3-3-3---|
B|-2-2-2-2-2-2-2-2-|-0-0-0-0-0-0-0---|
G|-2-2-2-2-2-2-2-2-|-0-0-0-0-0-0-0---|
D|-2-2-2-2-2-2-2-2-|-0-0-0-0-0-0-0---|
A|-0-0-0-0-0-0-0-0-|-2-2-2-2-2-2-2---|
E|-----------------|-3-3-3-3-3-3-3---|(x4)


Interlude 2:

   Dm               Am               C                G
e|-1~-------------|-0~-------------|-0~-------------|-3~-------------|
B|-3~-------------|-1~-------------|-1~-------------|-0~-------------|
G|-2~-------------|-2~-------------|-0~-------------|-0~-------------|
D|-0~-------------|-2~-------------|-2~-------------|-0~-------------|
A|----------------|-0~-------------|-3~-------------|-2~-------------|
E|----------------|----------------|----------------|-3~-------------|(x2)
  (let ring)

Song:

Intro

Verse 1 
Dm      Am           C                         G
  I see rivers in my sleep they're filled with blood
Dm          Am            C                     G
  Don't you count me 'cos my home's a desperate one
Dm      Am           C                   G
  I got time but not for you the trouble is
Dm        Am             C             G
  This agenda's life and life is a new win 

Interlude 1

Verse 2
Dm      Am             C                 G
  I got curtains at my feet that weigh a ton
Dm           Am       C                    G
  Aren't you over me? Your problems just begun 
Dm          Am          C                   G
  If I'm an island then your mind is off of me
Dm          Am          C                  G
  If I'm an island then you're the darkest sea 

Interlude 2

Verse 3
Dm     Am      C                 G
   I know that you're the dreary one (x3)

Dm Am C G~(let ring)

Ending:
Sweeping sounds, organ chords (A and G) and noise 
Tap to rate this tab
 
# A B C D E F G H I J K L M N O P Q R S T U V W X Y Z