Song name
# A B C D E F G H I J K L M N O P Q R S T U V W X Y Z

No Age - Fever Dreaming tab

-------------------------------------------------------------------------------
			     FEVER DREAMING - No Age
-------------------------------------------------------------------------------
Tabbed by: jonsip@gmail.com

Tuning: normal

main riff strummed as fast as you can ...               X 8-times
e|--------------------------------------------------------------------------|
B|--------------------------------------------------------------------------|
G|---7-7-7-7-7-7-7-7-7-7-7-7-5-5--------------------------------------------|
D|---7-7-7-7-7-7-7-7-7-7-7-7-5-5--------------------------------------------|
A|---5-5-5-5-5-5-5-5-5-5-5-5-3-3--------------------------------------------|
E|--------------------------------------------------------------------------|


... then this is the part when the screaming voice plays in the background ...
e|--------------------------------------------------------------------------|
B|--------------------------------------------------------------------------|
G|--------------------------------------------------------------------------|
D|---5-5-5-5-5-5-5-5-5-5-5-5------------------------------------------------|
A|---5-5-5-5-5-5-5-5-5-5-5-5------------------------------------------------|
E|---3-3-3-3-3-3-3-3-3-3-3-3------------------------------------------------|


... the outro is just this played over and over.
e|--------------------------------------------------------------------------|
B|--------------------------------------------------------------------------|
G|---7---7---7--------------------------7---7---7---------------------------|
D|---7---7---7--------------------------7---7---7---------------------------|
A|---5---5---5--------------------------5---5---5---------------------------|
E|--------------------------------------------------------------------------|
		                "...fever dreaming.."                "...fever dreaming..."
Tap to rate this tab
 
# A B C D E F G H I J K L M N O P Q R S T U V W X Y Z