Song name
# A B C D E F G H I J K L M N O P Q R S T U V W X Y Z

No Age - Life Prowler tab

No Age-Life Prowler-Everything in between (2010)



  0:07

E -------------------------------------------------------------------------|
B -------------------------------------------------------------------------|
G ----2-------1h2-----2-------1h2-----2-------1h2-----2-------1h2----------|
D  --2-------2-------2-------2-------2-------2-------2-------2-------------|
A  -0-------0-------0-------0-------0-------0-------0-------0--------------|
E  ------------------------------------------------------------------------|

  0:30

E -------------------------------------------------------------------------|
B -------------------------------------------------------------------------|
G --4-2~~~~~~~--------------4-2--------------------------------------------|
D ------------------------------2-4~~~~~~~~~~~~~~~~~~~~~~~-----------------|
A -------------------------------------------------------------------------|
E -------------------------------------------------------------------------| 

  1:11

E -------------------------------------------------------------------------|
B -------------------------------------------------------------------------|
G ---6--------------------------6------------------------------------------|
D ---7--x16 times---------------7----x16 times-----------------------------|
A ---7--------------------------5------------------------------------------|
E ---5--------------------------5--------------------------by dimakin------|
Tap to rate this tab
# A B C D E F G H I J K L M N O P Q R S T U V W X Y Z