Song name
# A B C D E F G H I J K L M N O P Q R S T U V W X Y Z

No Bragging Rights - To The People I Consider Cowards tab

This is my first tab. NBR rulez !!!. ENJOY.
  
 INTRO
e|-----------------------------------------|
B|-----------------------------------------|
B|-----------------------------------------|
G|----2------------------------------------|
D|-0----3-4-2------------------------------|
A|-0----------3-4---000-00-00-00-----------|
D|-0----------------000-00-00-00-----------|
                    *** ** ** **

e|---------------------------------------|
B|---------------------------------------|
B|---------------------------------------|
G|---2-----------------------------------|
D|-----3-4-2-----------------------------|
A|-----------3-4---000-00-00-00----------|
D|-----------------000-00-00-00----------|
                   *** ** ** **
e|---------------------------------------|
B|---------------------------------------|
B|---------------------------------------|
G|---2-----------------------------------|
D|-----3-4-2-----------------------------|
A|-----------3-4---333-33-33-33----------|
D|-----------------333-33-33-33----------|
                   *** ** ** **

e|---------------------------------------|
B|---------------------------------------|
B|---------------------------------------|
G|---2-----------------------------------|
D|-----3-4-2-----------------------------|
A|-----------3-4---000-00-00-00----------|
D|-----------------000-00-00-00----------|
                    *** ** ** **

e|---------------------------------------|
B|---------------------------------------|
B|---------------------------------------|
G|---2-----------------------------------|
D|-----3-4-2-----------------------------|
A|-----------3-4---000-00-00-00----------|
D|-----------------000-00-00-00----------|
                   *** ** ** **
e|---------------------------------------|
B|---------------------------------------|
B|---------------------------------------|
G|---2-----------------------------------|
D|-----3-4-2-----------------------------|
A|-----------3-4---333-33-33-33----------|
D|-----------------333-33-33-33----------|
                   *** ** ** **
BREAKDOWN
e|--------------------------------------------------------------|
B|--------------------------------------------------------------|
G|--------------------------------------------------------------|
D|--------------------------------------------------------------|
A|-000-0-000-000--000-0-000-000--000-0-000-000--000-0-000-000---|
D|-000-0-000-000--000-0-000-000--000-0-000-000--000-0-000-000---|
   *** * *** ***  *** * *** ***  *** * *** ***  *** * *** ***

e|--------------------------------------------------------------------|
B|--------------------------------------------------------------------|
G|--------------------------------------------------------------------|
D|--------------------------------------------------------------------|
A|-333-3-333-333--333-3-333-333--333-3-333-333-000-0-000-000----------|
D|-333-3-333-333--333-3-333-333--333-3-333-333-000-0-000-000----------|
   *** * *** ***  *** * *** ***  *** * *** *** *** * *** ***
INTRO RIFF
 
e|--------------------------------------|
B|-2------------------------------------|
G|---3-4-2------------------------------|
D|---------3-4--------------------------|
A|-------------0-000-000-000------------|
D|-------------0-000-000-000------------|
               * *** *** ***
e|--------------------------------------|
B|-2------------------------------------|
G|---3-4-2------------------------------|
D|---------3-4--------------------------|
A|-------------0-000-000-000------------|
D|-------------0-000-000-000------------|
               * *** *** ***
e|--------------------------------------|
B|-2------------------------------------|
G|---3-4-2------------------------------|
D|---------3-4--------------------------|
A|-------------3-333-333-333------------|
D|-------------3-333-333-333------------|
               * *** *** ***
e|----------------------------|
B|-2--------------------------|
G|---3-4-2--------------------|
D|---------3-4----------------|
A|----------------------------|
D|----------------------------| 
 This is all I know. Hope it Helps. COMMENTS.

http://www.myspace.com/NoBraggingRights
Label: Pure Noise Entertainment 
 
Tap to rate this tab
 
# A B C D E F G H I J K L M N O P Q R S T U V W X Y Z