Guitaretab - guitar tabs
Song name
# A B C D E F G H I J K L M N O P Q R S T U V W X Y Z

No Cash - Pierce The Gates tab

Pierce The Gates - No Cash

Tuning: Standard (e B G D A E)

x - dead note 
(n) - ghost note
> - accentuated note 
h - hammer on
p - pull off
^ - bend 
/ - slide  
~ - vibrato
.  Palm Mute
[n] - harmonic

Intro - Guitar 1
e|-----------------------------------|
B|-----------------------------------|
G|-2---------------------------------|
D|-2-----------2---------------------|
A|-0--5-3-0----0--3-5----------------|
E|--------------------0--------------| x2

e|-------------------------------|
B|-------------------------------|
G|-------------------------------|
D|-3-----------2-----------------|
A|-3--5-3-0----2--2-3-2----------|
E|-1-----------0-----------------|

e|------------------------------------------|
B|------------------------------------------|
G|-2----------------------[7]-[6]-[9]-[8]---|
D|-2-----------2----------------------------|
A|-0--5-3-0----0--3-5-----------------------|
E|--------------------0---------------------|

[ Tab from: http://www.guitaretab.com/n/no-cash/68444.html ]
Verse - Guitar 1 (Ska)
e|--5x5x5x5x--12x12x12x12x--5x5x5x5x--12x12x12x12x--1x1x1x1x1x--5x5x5x5x----|
B|--5x5x5x5x--12x12x12x12x--5x5x5x5x--12x12x12x12x--1x1x1x1x1x--5x5x5x5x----|
G|--5x5x5x5x--13x13x13x13x--5x5x5x5x--13x13x13x13x--1x1x1x1x1x--5x5x5x5x----|
D|--------------------------------------------------------------------------|
A|--------------------------------------------------------------------------|
E|--------------------------------------------------------------------------|


Chorus - Guitar 1
e|----------------------------------|
B|----------------------------------|
G|----------------------------------|
D|-77-7--22-2--33-3---5-6-5---------|
A|-77-7--22-2--33-3---x-x-x---------|
E|-55-5--00-0--11-1---3-4-3---------|


Chorus - Guitar 2
e|------------------------------------|
B|------------------------------------|
G|-14141414-16161616-17171717--14--13-|
D|--x-x-x-x--x-x-x-x--x-x-x-x---x---x-|
A|-12121212-14141414-15151515--12--11-|
E|------------------------------------|


BREAKDOWN: ??


-END-

Question, comments or improvements? crackcityrockers@gmail.com




Related for Pierce The Gates tab