Song name
# A B C D E F G H I J K L M N O P Q R S T U V W X Y Z

No Cash - Annihilation Of The Nation tab

-------------------------------------------------------------------------------
			     Annihilation of the Nation- No Cash
-------------------------------------------------------------------------------
Tabbed by:Eddie
Email:skankineddie666@aol.com

Tuning:Normal


INTRO
Guitar 1
e|---------------------------------------------------------------------------|
B|---------------------------------------------------------------------------|
G|--------------------12-12--------------------------------------------------|
D|--------12-12--------------------------------------------------------------|
A|--10-10-------10-10--------------------------------------------------------|
E|---------------------------------------------------------------------------|

Guitar 1
INTRO PART 2 after piano ends
Strum it a few times
e|---------------------------------------------------------------------------|
B|---------------------------------------------------------------------------|
G|-12--11-9--7--5--4---------------------------------------------------------|
D|-X---X--X--X--X--X--7--5---------------------------------------------------|
A|-10--9--7--5--3--2--X--X---------------------------------------------------|
E|--------------------5--3---------------------------------------------------|

Guitar 1 and 2 main riff
e|---------------------------------------------------------------------------|
B|---------------------------------------------------------------------------|
G|-12--11-9--7--5--4---------------------------------------------------------|
D|-12--11-9--7--5--4--7--5---------------------------------------------------|
A|-10--9--7--5--3--2--7--5---------------------------------------------------|
E|--------------------5--3---------------------------------------------------|


Guitar 2 does this sometimes while main riff is playing
e|---------------------------------------------------------------------------|
B|---------------------------------------------------------------------------|
G|-12--16--12--16--14--16--17--19--------------------------------------------|
D|-X---X---X---X---X---X---X---X---------------------------------------------|
A|-10--14--10--14--12--14--15--17--------------------------------------------|
E|---------------------------------------------------------------------------|

Guitar 1 and 2
Chrous
e|---------------------------------------------------------------------------|
B|---------------------------------------------------------------------------|
G|-4--5-----7-----7----------------------------------------------------------|
D|-4--5--5--7--5--7----------------------------------------------------------|
A|-2--3--5--5--5--5----------------------------------------------------------|
E|-------3-----3-------------------------------------------------------------|

Well thats pretty much all of the song u just have to figure out how it goes which isn't 
hard. Sorry for not putting down how many times to strum  but im pretty sure you can 
it out. NO CASH 4 LIFE
Tap to rate this tab
# A B C D E F G H I J K L M N O P Q R S T U V W X Y Z