Song name
# A B C D E F G H I J K L M N O P Q R S T U V W X Y Z

No Cash - Samurais Of The Sea tab

No-Cash - Samurais Of The Sea
Run Your Pockets - 2003 - Track 1
Tabbed By: Stephen Parsons - Stevopar@gmail.com

||Intro
|Guitar 1+2
e|*---------------|----------------|
B|10-----inaudible|----------------|
G|*--------crap---|----------------|
D|7--------then---|----------------|
A|???-------------|----------------|
E|----------------|0~--------------|
???=I have no clue

||Part 1
|Guitar 1
e|--------------------------------|--------------------------------|
B|--------------------------------|--------------------------------|
G|--------------------------------|--------------------------------|
D|2---2-----------4-5-4-5-5---4---|2---0---------------------------|
A|2-----2-3---2---2-3-2-3-5---4---|2-----3-2---0-----------2-------|
E|0-------*---*---m-m-m-m-3---2---|0-------------3-2-3-2-3-*-------|
*= pinch harmonic                                

e|--------------------------------|--------------------------------|
B|--------------------------------|--------------------------------|
G|--------------------------------|--------------------------------|
D|----0-------0---2-------320-----|--------------------2---2---2---|
A|3-----3-0-----3-2-----03---320--|3---3-2-0-------2---2---2---2-22|
E|----------------0-------------32|------------2323----0---0---0-00|
                        \probably/             ****              mm  
                          wrong

|Guitar 2
e|--------------------------------|--------------------------------|
B|--------------------------------|--------------------------------|
G|--------------------------------|--------------------------------|
D|------------------------5---4---|2~------------------------------|
A|------------------------5---4---|2~------------------------------|
E|------------------------3---2---|0~------------------------------|

e|--------------------------------|--------------------------------|
B|--------------------------------|--------------------------------|
G|5-------2-----------------------|5-------2-----------------------|
D|5-------2-------2---------------|5-------2-------2---------------|
A|3-------0-------2---------------|3-------0-------2---------------|
E|----------------0---------------|----------------0---------------|

||Part 2
|Guitar 1
e|--------------------------------|--------------------------------|
B|--------------------------------|--------------------------------|
G|--------------------------------|--------------------------------|
D|2---2---------------4-5-5---4---|2---0---------------------------|
A|2-----2-3---2---2-3-2-3-5---4---|2-----3-2---0-----------2-------|
E|0-------*---*-------m-m-3---2---|0-------------3-2-3-2-3-*-------|

e|--------------------------------|--------------------------------|
B|5-------5-------5---------------|--------------------------------|
G|7^9-----7^9-----7^9-------------|--------------------------------|
D|------------------------320-----|--------------------2---2---2---|
A|----------------------03---320--|3---3-2-0-------2---2---2---2-22|
E|------------------------------32|------------2323----0---0---0-00|
                        \probably/             ****              mm  
                          wrong 
                         (still)

|Guitar 2
e|--------------------------------|--------------------------------|
B|--------------------------------|--------------------------------|
G|--------------------------------|--------------------------------|
D|2-----------------------5---4---|2~------------------------------|
A|2-----------------------5---4---|2~------------------------------|
E|0-----------------------3---2---|0~------------------------------|

e|--------------------------------|--------------------------------|
B|------------------------653-----|*-------------------------------|
G|5-------2-------------25---542--|9-------------------------------|
D|5-------2-------2-------------54|???-------------2~--------------|
A|3-------0-------2---------------|----------------2~--------------|
E|----------------0---------------|----------------0~--------------|
                        \  also  /
                         probably 
                          wrong

||End
|Guitar 1
e|----------------|
B|----------------|
G|2---------------|
D|2---------------|
A|0---------------|
E|----------------|

|Guitar 2
e|----------------|
B|----------------|
G|6---------------|
D|x---------------|
A|4---------------|
E|----------------|

Well, that's it. Some of it is wrong, but most is right on. Remeber kiddos, No-Ca$h forever.
Tap to rate this tab
 
# A B C D E F G H I J K L M N O P Q R S T U V W X Y Z