Song name
# A B C D E F G H I J K L M N O P Q R S T U V W X Y Z

No Cash - Homelife Is A Drag tab

Help us improve GuitareTab! Take a short survey!
Guitar 1
INTRO
|----------------------------------------------------------------|
|-13----13----13----13----13----13----13----13----13----13----13-|
|----12----12----12----12----12----12----12----12----12----12----|
|----------------------------------------------------------------|
|----------------------------------------------------------------|
|----------------------------------------------------------------|


Guitar 1
INTRO COUNTINUE
|----------------------------------------------------------------|
|----------------------------------------------------------------|
|-5~--9-12-9-7-5~--9-12-9-7-5~--9-12-9-7-12-9-7-12-9-7-5~--------|
|----------------------------------------------------------------|
|----------------------------------------------------------------|
|----------------------------------------------------------------|



Guitar 2
INTRO COUNTINUE
|----------------------------------------------------------------|
|----------------------------------------13-12-10-8-10-8---------|
|-5~--9-12-9-7-5~--9-12-9-7-5~--9-12-9-7-----------------9-------|
|----------------------------------------------------------------|
|----------------------------------------------------------------|
|----------------------------------------------------------------|


Guitar 1 & 2
Last Part of Intro
|----------------------------------------------------------------|
|----------------------------------------------------------------|
|-5~--9-12-9-7-5~--9-12-9-7-5~--9-12-9-7-12-9-7-12-9-7-5---------|
|-X---X-X--X-X-X---X-X--X-X-X---X-X--X-X-X--X-X-X--X-X-X---------|
|-3~--7-10-7-5-3~--7-10-7-5-3~--7-10-7-5-10-7-5-10-7-5-3---------|
|----------------------------------------------------------------|


Guitar 1 & 2
Verses
|----------------------------------------------------------------|
|----------------------------------------------------------------|
|-555555--777777-------------------------------------------------|
|-555555--777777--777777--333333---------------------------------|
|-333333--555555--777777--333333---------------------------------|
|-----------------555555--111111---------------------------------|


Guitar 1 Countinue Verses:

Guitar 2 Weird Thing during Verse
|--------0--3--0---------0--3--0---------0--3--0---------7--8~---|
|----------------------------------------------------------------|
|-555555----------555555----------555555---------555555----------|
|-555555----------555555----------555555---------555555----------|
|-333333----------333333----------333333---------333333----------|
|----------------------------------------------------------------|
   . . .           . . .           . . .          . . .





Related for Homelife Is A Drag tab