Guitaretab - guitar tabs
Song name
# A B C D E F G H I J K L M N O P Q R S T U V W X Y Z

No Cash - Kill Your Parents tab

e|--------------------------------|--------------------------------|
B|--------------------------------|--------------------------------|
G|--------------------------------|--------------------------------|
D|--------------------------------|------------5-4-2---------------|
A|----2--3--2-----2-3-5-3-2-------|----2--3--2-------5-4-2---------|
E|0-3---------0-3-----------------|0-3---------------------5-3-----|

e|--------------------------------|--------------------------------|
B|--------------------------------|--------------------------------|
G|--------------------------------|--------------------------------|
D|--------------------------------|------------5-4-2------------2--|
A|----2--3--2-----2-3-5-3-2-------|----2--3--2-------5-4-2------2--|
E|0-3---------0-3-----------------|0-3---------------------5-3--0--|

e|----------------|
B|----------------|
G|----------------|
D|5-4-2---------2-|
A|-----5-4-2----2-|
E|----------5-3-0-|
 (       x3     )
e|----------------|
B|----------------|
G|----------------|
D|5-4-2----------2|
A|-----5-4-2-----2|
E|----------5-3--0|

               figuar out the rhythem urself
                               (     2x       )
e|---------------------------|----------------------|
B|---------------------------|----------------------|
G|---5-----7-----5-----7-----|-9-/-5-/-12-/-7-------|
D|2--5--5--7--2--5--5--x-----|-x-/-x-/--x-/-x-------|
A|2--3--5--5--2--3--5--5-----|-7-/-3-/-10-/-5-------|
E|0-----3-----0-----3--------|----------------------|

   " not to sure bout the ska part "
     figuar out rhythem urself 
e|12-x-11-x-12-x-15----|
B|12-x-11-x-12-x-15----|
G|12-x-11-x-12-x-15----|
D|---------------------| 
A|---------------------|
E|---------------------|


e|---------------------------|----------------------|
B|---------------------------|----------------------|
G|---5-----7-----5-----7-----|-9-/-5-/-12-/-7-------|
D|2--5--5--7--2--5--5--x-----|-x-/-x-/--x-/-x-------|
A|2--3--5--5--2--3--5--5-----|-7-/-3-/-10-/-5-------|
E|0-----3-----0-----3--------|----------------------|


e|12-x-11-x-12-x-15----|
B|12-x-11-x-12-x-15----|
G|12-x-11-x-12-x-15----|
D|---------------------| 
A|---------------------|
E|---------------------|

[ Tab from: http://www.guitaretab.com/n/no-cash/78725.html ]
e|---------------------------|----------------------|
B|---------------------------|----------------------|
G|---5-----7-----5-----7-----|-9-/-5-/-12-/-7-------|
D|2--5--5--7--2--5--5--x-----|-x-/-x-/--x-/-x-------|
A|2--3--5--5--2--3--5--5-----|-7-/-3-/-10-/-5-------|
E|0-----3-----0-----3--------|----------------------|

e|--------------------------------|--------------------------------|
B|--------------------------------|--------------------------------|
G|--------------------------------|--------------------------------|
D|--------------------------------|------------5-4-2---------------|
A|----2--3--2-----2-3-5-3-2-------|----2--3--2-------5-4-2---------|
E|0-3---------0-3-----------------|0-3---------------------5-3-----|

e|---------------------------|----------------------|
B|---------------------------|----------------------|
G|---5-----7-----5-----7-----|-9-/-5-/-12-/-7-------|
D|2--5--5--7--2--5--5--x-----|-x-/-x-/--x-/-x-------|
A|2--3--5--5--2--3--5--5-----|-7-/-3-/-10-/-5-------|
E|0-----3-----0-----3--------|----------------------|

e|12-x-11-x-12-x-15----|
B|12-x-11-x-12-x-15----|
G|12-x-11-x-12-x-15----|
D|---------------------| 
A|---------------------|
E|---------------------|

e|---------------------------|----------------------|
B|---------------------------|----------------------|
G|---5-----7-----5-----7-----|-9-/-5-/-12-/-7--9~---|
D|2--5--5--7--2--5--5--x-----|-x-/-x-/--x-/-x--x----|
A|2--3--5--5--2--3--5--5-----|-7-/-3-/-10-/-5--7~---|
E|0-----3-----0-----3--------|----------------------|
 
    outro"not 100% right i think"
e|---------------------------------------------|
B|---12--10--8---------------------------------|
G|-9-----------5-5-5--7--8--8--7--5--7--4444--9|
D|---------------------------------------------| 
A|---------------------------------------------|
E|---------------------------------------------|

e|----------------------------------------------|
B|---12--10--8----------------------------------|
G|-9-----------5-5-5--7--8--8--7--5--7--4444--9~|
D|----------------------------------------------| 
A|----------------------------------------------|
E|----------------------------------------------|

something like that ...play arond with the tabs 

Kill Ur Parents


Related for Kill Your Parents tab
Advertisement will be closed in 10 seconds