Song name
# A B C D E F G H I J K L M N O P Q R S T U V W X Y Z

No Cash - Life Sucks tab

Intro/Verse/Main Riff
        A    A   D  C# F# F# C# B
e|-----------------------------------|
B|-----------------------------------|
G|-----------7---6-----------7---6---|
D|---7---7---7---6---4---4---7---6---|
A|---7---7---5---4---4---4---5---4---|
E|---5---5------------2---2----------|

Chorus
Guitar 1                Guitar 2
E|----|                E|-------------|
B|----|                B|-------------|
G|----|                G|-------------|
D|-7--|                D|-7---4-7-44--|
A|----|                A|-------------|
E|-5--|                E|-5-----------|


Solo
e|-------------------------------------------------------------------|
B|-------------------------------------------------------------------|
G|-15-14-12------------15-14-12--------15-14-12--15-14-15-17-15-14---|
D|----------15--12-12------------12-12-------------------------------|
A|-------------------------------------------------------------------|
E|-------------------------------------------------------------------|

e|-------------------------------------------------------------------|
B|-------------------------------------------------------------------|
G|-15-14-17-15----15-14-17-15-----15-14-17-15-----19-19-17-15-15-----|
D|--------------15--------------15--------------15-------------------|
A|-------------------------------------------------------------------|
E|-------------------------------------------------------------------|
Tap to rate this tab
# A B C D E F G H I J K L M N O P Q R S T U V W X Y Z