Song name
# A B C D E F G H I J K L M N O P Q R S T U V W X Y Z

No Choice - Pop Song tab

No choice
Pop Song


e--------------------------------------------------------------|
h--------------------------------------------------------------|pm all
g---------------11111111-99------------------------------------|
d---------------0-0-0-0--00------------------------------------|
a-111211-9-10-7------------------------------------------------|
e-0-0-0--7-9--5------------------------------------------------|

e--------------------------------------------------------------|
h--------------------------------------------------------------|pm all
g---------------1111-9-1111-9----------------------------------|
d---------------0-0--0-0-0--0----------------------------------|
a-111211-9-10-7------------------------------------------------|
e-0-0-0--7-9--5------------------------------------------------| 

all together 2 times

e--------------------------------------------------------------|
h--------------------------------------------------------------|
g---------------11111111-99------------------------------------|
d---------------0-0-0-0--00------------------------------------|
a-111211-9-10-7------------------------------------------------|
e-0-0-0--7-9--5------------------------------------------------|

e--------------------------------------------------------------|
h--------------------------------------------------------------|
g---------------1111-9-1111-9----------------------------------|
d---------------0-0--0-0-0--0----------------------------------|
a-111211-9-10-7------------------------------------------------|
e-0-0-0--7-9--5------------------------------------------------| 

all together 2 times

verse
e--------------------------------------------------------------|
h--------------------------------------------------------------|pm all
g--------------------------------------------------------------|
d------------------------------7-9-----------------------------|
a-111211-99-10---111211-99-7---7-9-----------------------------|
e-0-0-0--77-9----0-0-0--77-5---5-7-----------------------------|

bridge
e--------------------------------------------------------------|
h--------------------------------------------------------------|
g--------------------------------------------------------------|
d--11--777666999777----11-7-9----------------------------------|
a--11--777777777777----11-7-9----------------------------------|
e--9---555555555555----9--5-7----------------------------------|

chorus
e-------------------|
h-------------------|
g-------------------|
d---2-9-7-----------|
a---2-9-7-----------|
e-----7-5-----------|
Tap to rate this tab
 
# A B C D E F G H I J K L M N O P Q R S T U V W X Y Z