Song name
# A B C D E F G H I J K L M N O P Q R S T U V W X Y Z

No Disrespection - Hated No More Shit tab

intro 1

[]--------------------------------------------------------------------|
[]--------------------------------------------------------------------|
[]--------------------------------------------------------------------|
[]-3-3-3-3-3-3-3-3-3-3-3-3-3-3-3-3-3-3-3-3-3-3-3-3-3-3-3-3-3-3--------|
[]--------------------------------------------------------------------|
[]--------------------------------------------------------------------|


intro 2

[]---------------------------------------------------------------------|
[]---------------------------------------------------------------------|
[]---------------------------------------------------------------------|
[]---------5-5-5-5--5-5-5-5--7-7-7-7--7-7-7-7--9-9-9-9--9-9-9-9--------|
[]---------3-3-3-3--3-3-3-3--5-5-5-5--5-5-5-5--7-7-7-7--7-7-7-7--x4----|
[]--3-3-3--------------------------------------------------------------|
pm---------------------------------------------------------------------|

verse

[]---------------------------------------------------------------------|
[]---------------------------------------------------------------------|
[]---------------------------------------------------------------------|
[]-----3-3-3---5-5-5---7-7-7--5-3-5-3--0-0-0---------------------------|
[]--5------------------------------------------------------------------|
pm---------------------------------------------------------------------|


pre chorus


[]-------------------------------------------------------------------|
[]-------------------------------------------------------------------|
[]-------------------------------------------------------------------|
[]-3-3-3-3-3-3-3-3---5-5-5-5-5-5-5-5-----x--x-x----------------------|
[]---------------------------------------x--x-x----------------------|
[]---------------------------------------x--x-x----------------------|

chorus

[]--------------------------------------------------------------------------|
[]--------------------------------------------------------------------------|
[]--3--3-3-3-3-3-3-3--9-9-9-9-9-9-9-9--6-6-6-6-6-6-6-6--8-8-8-8-10-10-10-10-|
[]--1--1-1-1-1-1-1-1--7-7-7-7-7-7-7-7--4-4-4-4-4-4-4-4--6-6-6-6--8--8--8--8-|
[]--------------------------------------------------------------------------|
[]--------------------------------------------------------------------------|


solo

[]--------------------------------------------------------------------|
[]--------------------------------------------------------------------|
[]--------------------------------------------------------------------|
[]-----5------5>10-----3--5---7--7-7--5--3-5----3-5---7--7-7--5--3-5--|
[]--------------------------------------------------------------------|
[]--------------------------------------------------------------------|

[]--------------------------------------------------------------------|
[]--------------------------------------------------------------------|
[]--------------------------------------------------------------------|
[]--5-5---7-7--9-9--5-5-5-5-7-3-----5--7-7--9-9--5-5-5-5-7-3----------|
[]--------------------------------------------------------------------|
[]--------------------------------------------------------------------|


ending


[]--------------------------------------------------------------------|
[]--------------------------------------------------------------------|
[]--------------------------------------------------------------------|
[]----9-9-9-9-9-9-9-9--9-9-9-9-9-9-9-9-9-9-9-9-9-9-9-9-9-9-9-9-9-9-9--|
[]----7-7-7-7-7-7-7-7--6-6-6-6-6-6-6-6-6-7-7-7-7-7-7-7-7-6-6-6-6-6-6--|
[]--------------------------------------------------------------------|
Tap to rate this tab
# A B C D E F G H I J K L M N O P Q R S T U V W X Y Z