Song name
# A B C D E F G H I J K L M N O P Q R S T U V W X Y Z

No Doubt - Staring Problem tab

----------------------------------------------------------------------------
			   STARING PROBLEM - No Doubt
----------------------------------------------------------------------------

Tabbed by: Ben Cunningham 'BCunningham'
Email: stuckonu_1212@hotmail.com

Tuning: Standard


Intro

e|---------------------------------------|
B|---------------------------------------|
G|---------------------------------------|
D|---------------------------------------|
A|--------7-7------------------7--5------|
E|---0-0-------5-5--8-8--------------8---|


Verse

e|-----------------------|
B|-----------------------|
G|-----------------------|
D|-----------------------|
A|-------7-7-------------|
E|---0-0------5-5--8-8---|
   pm..................


Fill

e|----------------------------|
B|----------------------------|
G|---7-----7-----7-----7------|
D|------6-----6-----6-----6---|
A|----------------------------|
E|----------------------------|


Chorus

e|------------------------------------------------|-Last-Time-|
B|------------------------------------------------|-----------|
G|---4-4-x-x-x-------------4-4-x-x-x--------------|-----4-----|
D|---4-4-x-x-x--5-5-x-x-x--4-4-x-x-x--5-5-x-x-x---|-----4-----|
A|---2-2-x-x-x--5-5-x-x-x--2-2-x-x-x--5-5-x-x-x---|-----2-----|
E|--------------3-3-x-x-x-------------3-3-x-x-x---|-----------|
*I can't tell exactly what Tom's doing here but this is pretty close...


Bridge

e|----------------------------------------------------|
B|----------------------------------------------------|
G|----------------------------------------------------|
D|---7--7--7--7-----------------------5-5--4-4--2-2---|
A|---7--7--7--7--------2-2--4-4--5-5------------------|
E|---5--5--5--5---------------------------------------|
*Tom's got this delay going on, but live I'm pretty sure he just uses his volume switch 
whammy bar live.


Ending

e|-------|
B|-------|
G|---4---|
D|---4---|
A|---2---|
E|-------|


Song Order:

Intro x2
Verse x4 (No Palm Mute)
Verse x8
Fill x1
Verse x8
Fill x1
Chorus x2
Intro x1
Verse x8
Fill x1
Chorus x4
Bridge x1
Chorus x6
Ending x1

This is my first tab so I hope its correct! Have fun No Doubt fans!

| /  Slide up
| \  Slide down
| h  Hammer-on
| p  Pull-off
| ~  Vibrato
| +  Harmonic
| x  Mute string
| .  Palm mute
============================================================================
Tap to rate this tab
# A B C D E F G H I J K L M N O P Q R S T U V W X Y Z