Guitaretab - guitar tabs
Song name
# A B C D E F G H I J K L M N O P Q R S T U V W X Y Z

No Doubt - Dont Speak tab

Don't Speak (Album version)     No Doubt

Capo on 1.

Tabbed by: Álex

Tuning: EADGBE

“Se la dedico a todos esos talentos que se ocultan detrás de una guitarra”


Lista de acordes para toda la canción.

Bm-  224432
F#m- 244222
Em-  022000
A-   x02220
D-   x00232
B-   113331
Am-  x02210
C-   x32010
G-   320033
Bb-  113331
F-   133211
G#-  466544




  Bm
]------------------------]-----------------------]------------------]
]3-----3---3---3-----3---]-----3---3---3-----3---]----3---3---3-----]
]4-----4---4---4-----4---]-----4---4---4-----4---]----4---4---4-----]
]4---4---4---4---4---4---]---4---4---4---4---4---]--4---4---4---4---]
]------------------------]-----------------------]------------------]
]------------------------]-----------------------]------------------]




 F#m          Em             A         F#m             Em  

]------------------------]-----------------------]------------------]
]2-----2-----0-----0-----]---2-----2-----2-------]2-----0-----0-----]
]4-----2-----0-----0-----]---2-----2-----4-------]4-----0-----0-----]
]4---4---4---2---2---2---]---2---2---2---4---4---]--4---2---2---2---]
]------------------------]-----------------------]------------------]
]------------------------]-----------------------]------------------]

You and me, we used to be together, every day together, always.
                      
 
   A
]-----------------------]
]---2-----2-------------]
]---2-----2-------------]
]---2---2---2-----------]
]-----------------------]
]-----------------------]







  Bm          F#m          Em           A           F#m        Bm       
]-----------------------]------------------------]-------------------]
]3-----3-----2-----2----]--0-----0-----2-----2---]--2-----2-----3----]
]4-----4-----4-----4----]--0-----0-----2-----2---]--4-----2-----4----]
]4---4---4---4---4---4--]--2---2---2---2---2---2-]--4---4---4---4----]
]-----------------------]------------------------]-------------------]
]-----------------------]------------------------]-------------------]



          
          Em              A          Bm             F#m        Em
]----------------------]-------------------------]-------------------]
]----3-----0-----0-----]--2-----2-----3-----3----]--2-----2-----0----]
]----4-----0-----0-----]--2-----2-----4-----4----]--4-----4-----0----]
]--4---4---2---2---2---]--2---2---2---4---4---4--]--4---4---4---2----]
]----------------------]-------------------------]-------------------]
]----------------------]-------------------------]-------------------]





           A             ¿?          ¿?           ¿?
]---------------------]------------------------]-------------------]
]----0-----2-----2----]--7-----7-----5-----5---]---4---------------]
]----0-----2-----2----]--7-----7-----6-----6---]---4---------------]
]--2---2---2---2---2--]--7---7---7---7---7---7-]---4---------------]
]---------------------]------------------------]-------------------]
]---------------------]------------------------]-------------------]




[ Tab from: http://www.guitaretab.com/n/no-doubt/13598.html ]
CHORUS:
Em              Am                    D
Don't speak, I know just what you're saying,
B                 Am
So please stop explaining,
       D        Em                Am D
Don't tell me 'cause it hurts.

Don't speak, I know what you're thinking,
I don't need your reasons,
Don't tell me 'cause it hurts.


Verse 2: [ Bm, F#m, Em, A etc as before ]

Our memories, they can be inviting,
But some are altogether mighty frightening,
As we die, both you and I,
With my head in my hands I sit and cry.


CHORUS:
Em              Am                    D
Don't speak, I know just what you're saying,
B                 Am
So please stop explaining,
       D        Em                Am D
Don't tell me 'cause it hurts.

Don't speak, I know what you're thinking,
I don't need your reasons,
 
                     Acordes potencia
Don't tell me 'cause it hurts.


Acordes potencia

    Fm5  D#5 C5  G#5
E|------------------|
B|------------------|
G|--9----7---4------|
D|--9----7---4---5--|
A|--7----5---2---5--|
E|---------------3--|






C           G              Bb    F                  G#  C  D G             
It's all ending, we gotta stop pretending who we are...




]--------------------------------------------------------------------]
]-----5-7-5--------------------------5-7-5---7----------5-7-5--------]
]-4-7----------6---------------4-7------------------4-7--------------]
]----------------7-----4-5-------------------------------------------]
]--------------------------------------------------------------------]
]--------------------------------------------------------------------]

]--------------------------------------------------7-9-10-9-10-9-7---]
]----------------------7-8-7-8-10----8h7---------7-------------------]
]--6-----------------7-------------------9~------7-------------------]
]----7-----4-5-------9-----------------------------------------------]
]--------------------------------------------------------------------]
]--------------------------------------------------------------------]

]-9----7-----------7-----7--8-10--8-10-8-7----------------------]
]---10---7-10----9---7-9----------------------------------------]
]---------------------------------------------------------------]
]-------------------------------------------------------2-4-----]
]------------------------------------------------2-4-5-------5--]
]---------------------------------------------------------------]

]--------------------------------------------------------------------]
]--------------------------------------------------------------------]
]--------2-4-2-------------------------------------------------------]
]-2-4-5---------5—4h5h4----------------------------------------------]
]--------------------------------------------------------------------]
]--------------------------------------------------------------------]


h - Hammer on
~ - Vibrato

Bm A Em A x3
Bm A Em -

Bm     F#m      Em           A       Em    A
You and me,   I can see us dying, always.

CHORUS, repeat a few times, fade.

Related for Dont Speak tab
Dont Speak chords by No Doubt