Song name
# A B C D E F G H I J K L M N O P Q R S T U V W X Y Z

No Doubt - Happy Now tab

e--11-------11-10----------10---------8
b----13---------11--------------------9
g------12-----------10----------------8

e--11-------11-10----------10---------8
b---13----------11--------------------9
g-----12-----------10-----------------8

e------11-------13---11-------11-----10----11 TO 10--10-8
b-----13---13----------------------11----11----------11-9
g----12--------------------12----10------------------10-8

 THE LAST PART MIGHT BE CONFUSING BUT READ IT CAREFULLY!
Tap to rate this tab
# A B C D E F G H I J K L M N O P Q R S T U V W X Y Z