Guitaretab - guitar tabs
Song name
# A B C D E F G H I J K L M N O P Q R S T U V W X Y Z

No Doubt - Spiderwebs tab


Date: Wed, 08 Jan 1997 06:40:35 +0200
From: Yoni 

Song: Spiderwebs
Artist: No doubt

tabbed by: Yoni Shaabani

Tuned: regular E


well Im REALLY usure about this verse thing..
but I figured its some kind of Bb tabbing.. somehting like..

 E -------------------------------7------------------
 B --------------------------------------------------
 G ------7-------7-------7---------------------------
 D ----8-------8-------8-------8---------------------         
 A --8-------8-------8-------8-----------------------
 E --------------------------------------------------
repeat that for the rest of the song..


D#         E#
But now I'm stuck in

Bb                G          
In the web you're spinning

D#             E# 
you got me for your prey  (slide it up on the frets..)


Sorry im not home right now

Walking in the spiderwebs

G                               D# (do Riff1)
so leave a message and I'll call you back


G               D#
now it's gone too deep

and the rest is G and D# with echo effects and all that stuff..
but I slipped over some of the end of the bridge... please
email me if u find it.. 10x


E --------------------------
B --------------------------
G --8-8-7-7-5-5-3-----------
D --8-8-7-7-5-5-3-----------
A --6-6-5-5-3-3-1-----------
E --------------------------

Lyric corrections by Yuval Adam (

if u find anymore riffs or things I slipped, or corrections, please
email me.. or if u just wanna mail..
[ Tab from: ]
Related for Spiderwebs tab