Song name
# A B C D E F G H I J K L M N O P Q R S T U V W X Y Z

No Doubt - I Throw My Toys Around tab

-------------------------------------------------------------------------------
			     I Throw My Toys Around - No Doubt
-------------------------------------------------------------------------------
Tabbed by:Vtrillo627
Email:it_dies_today84@yahoo.com

Tuning:Standard



Intro:

e|-------------------------------------------------|
B|-------2----5-----5-5---------2----5---5---------|
G|-------2----4-4-4-4-4-4-------2----4-4-4-4-------|
D|-------2----2-2-2-----2-------2----2--2---2------|
A|---0-0-0--0-0-------------0-0-0--0-0-------------|
E|-------------------------------------------------|



Verse 1:

Guitar 1
e|-------------------------------------------------|
B|-------2----5---5---------2----5---5-------------|
G|-------2----4---4-4-------2----4-----4-----------|
D|-------2----2-2---2-------2----2-2---2-----------|
A|---0-0-0--0-0---------0-0-0--0-0-----------------|
E|-------------------------------------------------|

Guitar 2
        A                   A
e|------x-------------------x----------------------|
B|------2-------------------2----------------------|
G|------2-------------------2----------------------|
D|------2-------------------2----------------------|
A|------0-------------------0----------------------|
E|------x-------------------x----------------------|


Guitar 1
                          F#m    E
e|------------------------2------x-----------------|
B|-------2----5---5-------2------2-----------------|
G|-------2----4-----4-----2------2-----------------|
D|-------2----2-2---2-----4------2-----------------|
A|---0-0-0--0-0-----------4------0-----------------|
E|------------------------2------x-----------------|

Guitar 2
        A                     F#m    E
e|------x---------------------2------x-------------|
B|------2---------------------2------2-------------|
G|------2---------------------2------2-------------|
D|------2---------------------4------2-------------|
A|------0---------------------4------0-------------|
E|------x---------------------2------x-------------|


Guitar 1
     C#     A      F#m    E
e|---x------x------2------0------------------------|
B|---5------2------2------0------------------------|
G|---6------2------2------1------------------------|
D|---6------2------4------2------------------------|
A|---4------0------4------2------------------------|
E|---x------x------2------0------------------------|

Guitar 2
        C#     A      F#m    E
e|------x------x------2------0---------------------|
B|------5------2------2------0---------------------|
G|------6------2------2------1---------------------|
D|------6------2------4------2---------------------|
A|------4------0------4------2---------------------|
E|------x------x------2------0---------------------|

Guitar 1
e|-------------------------------------------------|
B|-------2----5-5--5b-------2--5---5---------------|
G|-------2----4-4--4b-------2--4-4-4-4-------------|
D|-------2----2---------2---2--2-2---2-------------|
A|---0-0-0--0-0---------0-0-0--0-------------------|
E|-------------------------------------------------|

Guitar 2
        A                   A
e|------x-------------------x----------------------|
B|------2-------------------2----------------------|
G|------2-------------------2----------------------|
D|------2-------------------2----------------------|
A|------0-------------------0----------------------|
E|------x-------------------x----------------------|



Chorus:

Guitar 1
     D        Bm      G      A
e|---x--------x-------3------x-----------|
B|---3--------3-------3------2-----------|
G|---2--------4-------0------2-----------|
D|---0--------4-------0------2-----------|
A|---x--------2-------2------0-----------|
E|---x--------x-------3------x-----------|

Guitar 2
e|-------------------------------------------------|
B|-------------------------------------------------|
G|-------------------------------------------------|
D|---0--2/4-2-------0------2/4-2-------------------|
A|------------2--2-4-------------------------------|
E|--------------------3----------------------------|



Intro:

Guitar1
e|-------------------------------------------------|
B|-------2----5-----5-5---------2----5---5---------|
G|-------2----4-4-4-4-4-4-------2----4-4-4-4-------|
D|-------2----2-2-2-----2-------2----2--2---2------|
A|---0-0-0--0-0-------------0-0-0--0-0-------------|
E|-------------------------------------------------|

Guitar 2
e|-------------------------------------------------|
B|-------------------------------------------------|
G|-------------------------------------------------|
D|-------------------------------------------------|
A|--------------------------0-2b-2------2-0--------|
E|-------------------------0-----------------------|



Verse 2: 



Chorus:



Bridge:

Guitar 1&2
     D        Bm      G      A
e|---x--------x-------3------x-----------|
B|---3--------3-------3------2-----------|
G|---2--------4-------0------2-----------| x2
D|---0--------4-------0------2-----------|
A|---x--------2-------2------0-----------|
E|---x--------x-------3------x-----------|

Guitar 1&2
     D        Bm      G      
e|---x--------x-------3------------------|
B|---3--------3-------3------------------|
G|---2--------4-------0------------------|
D|---0--------4-------0------------------|
A|---x--------2-------2------------------|
E|---x--------x-------3------------------|




Verse 3:


Chorus: 


Intro:


Chorus:



Outro:

     G      
e|---3------------------|
B|---3------------------|
G|---0------------------|repeat til the end
D|---0------------------|
A|---2------------------|
E|---3------------------|






| /  slide up
| \  slide down
| h  hammer-on
| p  pull-off
| ~  vibrato
| +  harmonic
| x  Mute note
===============================================================================
Tap to rate this tab
# A B C D E F G H I J K L M N O P Q R S T U V W X Y Z