Song name
# A B C D E F G H I J K L M N O P Q R S T U V W X Y Z

No Doubt - Spiderwebs tab

Spiderwebs by: no doubt

X mute while strumming
B bend the string 
R release the bend
*Harmonics
~ hold the note or chord
/ slide from one note or chord to the next one

Intro
E|-6--xx6-5--xx5--xx3--xx3--6--xx66-|-xx6--xx6---xx5--xx5---xx3--xx33----------------------|
B|-6--xx6-6--xx6--xx3--xx3--8--xx88-|-xx6--xx6---xx6--xx6---xx3--xx33----------------------|
G|-7--xx7-5--xx5--xx3--xx3--8--xx88-|-xx7--xx7---xx5--xx5---xx3--xx33----------------------|
D|----------------------------------|---------------------------------11--00---------------|
A|----------------------------------|----------------------------------------33-10---------|
E|----------------------------------|------------------------------------------------------|
VERSE         Play 4x I suggest putting your pinky on the 10 on the g string.      
e|----------------|-------------------|-----------------------------------|
B|-o--------------|------------------o|-----------------------------------|
G|----------------|----------*10brb~--|-----------------------------------| Play 1x
D|----8-------8---|---8---------------|-----8------8-------------5-8------|
A|-o--------------|--------8---------o|-----------------------5-8---------|
E|-66----6--6---6-|-6---6-------------|--66---6--6---6---6-8--------------|

Pre Chorus                                         
E|--------------------------------------------------------------------------------------|
B|--------------------------------------------------------------------------------------|
G|--------------------------------------------------------------------------------------|
D|-888888--10-10-10-10-10-10-----------------888888-10b~~hold bend like a held note-----|
A|-666666--8--8--8--8-8-8--888888--555555--6666668b~~--------------------------------|
E|---------------------------666666--333333---------------------------------------------|

Chorus 2x
E|----------------------------------------------------|
B|----------------------------------------------------|
G|----------------------------------------------------|
D|----------------------------------11-00-------------|
A|-111111110-------------------------------33-10------|
E|------------11111111--33333333----------------------|
VERSE         Play 4x I suggest putting your pinky on the 10 on the g string.      
e|----------------|-------------------|-----------------------------------|
B|-o--------------|------------------o|-----------------------------------|
G|----------------|----------*10brb~--|-----------------------------------| Play 1x
D|----8-------8---|---8---------------|-----8------8-------------5-8------|
A|-o--------------|--------8---------o|-----------------------5-8---------|
E|-66----6--6---6-|-6---6-------------|--66---6--6---6---6-8--------------|

Pre Chorus                                         
E|--------------------------------------------------------------------------------------|
B|--------------------------------------------------------------------------------------|
G|--------------------------------------------------------------------------------------|
D|-888888--10-10-10-10-10-10-----------------888888-10b~~hold bend like a held note-----|
A|-666666--8--8--8--8-8-8--888888--555555--6666668b~~--------------------------------|
E|---------------------------666666--333333---------------------------------------------|
Chorus 2x
E|----------------------------------------------------|
B|----------------------------------------------------|
G|----------------------------------------------------|
D|----------------------------------11-00-------------|
A|-111111110-------------------------------33-10------|
E|------------11111111--33333333----------------------|
Post Chorus                                         x2
E|-------------------------------------------------------------------|
B|-------------------------------------------------------------------|
G|-------------------------------------------------------------------|
D|-3--3--3--3-------------------------11-00--------------------------|
A|-1--1--1--1--3--3--3--3--5--5--5--5------33-10---------------------|
E|-------------1--1--1--1--3--3--3--3--------------------------------|
BRIDGE:                                  x2  
E|---------|---------|----------|-------3~-|---------|-----------------------------------|
B|-------3~|-------3~|o------3~-|-------3~o|---------|--------------------------11--13---|
G|-----3-3~|-----3-3~|-----3-3~-|-----3-3~-|---------|888-10-10-10--12-12-12/14----------|
D|---5-----|---5-----|---5------|---5------|-5~5~5~5-|-----------------------------------|
A|-5-------|-6-------|o-5-------|-6-------o|-5~5~5~5~|-----------------------------------|
E|---------|---------|----------|----------|-3~3~3~3~|-----------------------------------|


Chorus 2x
E|----------------------------------------------------|
B|----------------------------------------------------|
G|----------------------------------------------------|
D|----------------------------------11-00-------------|
A|-111111110-------------------------------33-10------|
E|------------11111111--33333333----------------------|
Post Chorus                                         x2
E|-------------------------------------------------------------------|
B|-------------------------------------------------------------------|
G|-------------------------------------------------------------------|
D|-3--3--3--3-------------------------11-00--------------------------|
A|-1--1--1--1--3--3--3--3--5--5--5--5------33-10---------------------|
E|-------------1--1--1--1--3--3--3--3--------------------------------|
BRIDGE 2:                        Play all this 5x
E|------------------------|----------------------------|-----------------------|
B|------------------------|----------------------------|-----------------------|
G|------------------------|----------------------------|-----------------------|
D|-333333-(2)(3)(4)(5)(6)-|----------------------------|--------11-00----------|
A|-111111-----------------|333333-(2)(3)(4)(5)(6)------|555555--------33-10----|
E|------------------------|111111----------------------|333333-----------------|
                    
BRIDGE 3:               
e|---------------------------------1/8~6-------|
B|---------------------------------------------|
G|---------------------------------------------|
D|333333------------------1~~--0~~-------------|
A|111111-333333-555555-------------------------|
E|-------111111-333333-------------------------|
OUTRO:  Play around 5x
e|----6-----6-|-------------|----6----6-|--------------|
B|----6-----6-|----10----10-|----8----8-|----8----88---|
G|----7--xx-7-|----10-xx-10-|--x-7-xx-7-|-xx-8-xx-88---|
D|----8--xx-8-|----10-xx-10-|--x---xx---|-xx-8-xx-88---|
A|------------|-------------|-----------|--------------|
E|------------|-------------|-----------|--------------|

e|----6-----6-|-------------|----6----6-|---------------|
B|----6-----6-|----10----10-|----8----8-|----8----88-8p6|
G|----7-----7-|----10----10-|----7----7-|----8----88----|
D|----8-----8-|----10----10-|-----------|----8----88----|
A|------------|-------------|-----------|---------------|
E|------------|-------------|-----------|---------------|

e|----6-----6-|-------------|
B|----6-----6-|----10----10-| 
G|----7-----7-|----10----10-|
D|----8-----8-|----10----10-|
Solo:
??????
Outro: 
E|--------6~\1~|
B|-----6~------|
G|----7~~------|
D|-8~8~~~------|
A|-------------|
E|-------------|
Tap to rate this tab
# A B C D E F G H I J K L M N O P Q R S T U V W X Y Z