No Doubt - Dont Speak tab

Artist : No Doubt
Song :  Don't Speak (Solo)
                                        
h = hammer on
p = pull off
/ = slide up
\ = slide down
~ = vibrato
0 = play open
standard tuning
                        
E|-------3--------------------------|
B|---4-6---6~-3---------4-4/8-6-8~~-|
G|-5------------3-----5-------------|
D|----------------5/6---------------|
A|----------------------------------|
E|----------------------------------|


E|-------3--------------3-4-3-4-6-4p3-----|
B|---4-6---6~-3--------4--------------6~~-|
G|-5------------3-----5-------------------|
D|----------------5/6---------------------|
A|----------------------------------------|
E|----------------------------------------|

       
E|---8-10-11-10h11p10p8-10----8----------------------------------|
B|--8----------------------11---8-11----8------8-9-11-9h11p9-8~~-|
G|-8---------------------------------10---8-10-------------------|
D|---------------------------------------------------------------|
A|---------------------------------------------------------------|
E|---------------------------------------------------------------|


E|---------------------------------------|
B|---------------------------------------|
G|-------------------3-3h5--3\1--1-0h1p1-|
D|-------3-5---3-5-6---------------------|
A|-3h5h6-----6---------------------------|
E|---------------------------------------|
Tap to rate this tab
 
# A B C D E F G H I J K L M N O P Q R S T U V W X Y Z