Song name
# A B C D E F G H I J K L M N O P Q R S T U V W X Y Z

No Doubt - Sunday Morning tab

Sunday Morning by No Doubt





Tuning: Standard (E A D G B E)

Sustain: ~
Bend: b
Release: r
Slide up: /
Palm mute: .



(guitar comes in after 2 bars of bass)


Intro:
e|------12~---------------|
B|---12~------------------|
G|------------------------|
D|------------------------|
A|------------------------|
E|------------------------|

e|-4-4-4-4--4-4-4-4--4-4-4-4--4-4-4-4--4-4-4-4--4-4-4-4--4-4-4-4--4-4--44-44-|
B|-5-5-5-5--5-5-5-5--5-5-5-5--5-5-5-5--5-5-5-5--5-5-5-5--5-5-5-5--5-5--55-55-|
G|-4-4-4-4--6-6-6-6--4-4-4-4--6-6-6-6--4-4-4-4--6-6-6-6--4-4-4-4--6-6--64-64-|
D|---------------------------------------------------------------------------| 
A|---------------------------------------------------------------------------|
E|---------------------------------------------------------------------------|



Verse:
e|-X-X-4-X-X-4-X-X-4-X-X-4|     e|-5-5-5-5--4|
B|-X-X-5-X-X-5-X-X-5-X-X-5|     B|-5-5-5-5--5|
G|-X-X-4-X-X-4-X-X-6-X-X-6|     G|-6-6-6-6--6|
D|------------------------| 4x  D|-7-7-7-7--6|
A|------------------------|     A|-7-7-7-7--4|
E|------------------------|     E|-5-5-5-5---|

e|-0~--------0~-----------|  
G|-0~--------0~-----------|    
G|-1~--------1~-----------|    
D|-2~--------2~-----------|
A|-2~--------2~-----------|   
E|-0~--------0~-----------|



Verse



Pre chorus:
e|------------|
B|-2-4-2-4-2-4|
G|-2-4-2-4-2-4|
D|------------|
A|------------|
E|------------|



Chorus:
e|-4-4-4-4--7-7-7-7--2-2-2-2--5-5-5-5--4-4-4-4--7-7-7-7--5-5-5-5--4--2|
B|-5-5-5-5--9-9-9-9--2-2-2-2--5-5-5-5--5-5-5-5--9-9-9-9--5-5-5-5--5--4|
G|-6-6-6-6--9-9-9-9--2-2-2-2--6-6-6-6--6-6-6-6--9-9-9-9--6-6-6-6--6--4|
D|-6-6-6-6--9-9-9-9--4-4-4-4--7-7-7-7--6-6-6-6--9-9-9-9--7-7-7-7--6--4|
A|-4-4-4-4--7-7-7-7--4-4-4-4--7-7-7-7--4-4-4-4--7-7-7-7--7-7-7-7--4--2|
E|-------------------2-2-2-2--5-5-5-5--------------------5-5-5-5------|

e|-5~-------4~-------5~-------7~-------5~-------4~-|
B|-5~-------5~-------5~-------9~-------5~-------5~-|
G|-6~-------6~-------6~-------9~-------6~-------6~-|
D|-7~-------6~-------7~-------9~-------7~-------6~-|
A|-7~-------4~-------7~-------7~-------7~-------4~-|
E|-5~----------------5~----------------5~----------|



Post Chorus Part 1:            Post Chorus Part 2:
e|-----------------------|     e|----------------------|
B|-----------------------|     B|--55-44---------------|
G|-----------------------|     G|--------66-4-6-4------|
D|-----------------------| 2X  D|-----------------7-6--| 2X
A|---2-2----0-2-4-2-4-2--|     A|----------------------|
E|-0----4-4-------------2|     E|----------------------|



Verse



Pre Chorus



Chorus



Post Chorus Part 1



Pre Bridge:
e|--------------------------|
B|-2-4-2-4-2-4--4-5-4--5-4-5|
G|-2-4-2-4-2-4--4-4-4--4-4-4|
D|--------------------------|
A|--------------------------|
E|--------------------------|



Bridge:
e|-----------------------------------------------------------------12b14~-|
B|----------------------------------------------------9b10----------------|
G|-------------------4b6r---6--------8b9r---9-----------------------------|
D|------------------------------------------------------------------------|
A|------------------------------------------------------------------------|
E|-/9~--------------------------------------------------------------------|



e|-4-4-4-4--7-7-7-7--2-2-2-2--5-5-5-5--4-4-4-4--7-7-7-7--5-5-5-5--4-4-4-4|
B|-5-5-5-5--9-9-9-9--2-2-2-2--5-5-5-5--5-5-5-5--9-9-9-9--5-5-5-5--5-5-5-5|
G|-6-6-6-6--9-9-9-9--2-2-2-2--6-6-6-6--6-6-6-6--9-9-9-9--6-6-6-6--6-6-6-6|
D|-6-6-6-6--9-9-9-9--4-4-4-4--7-7-7-7--6-6-6-6--9-9-9-9--7-7-7-7--6-6-6-6|
A|-4-4-4-4--7-7-7-7--4-4-4-4--7-7-7-7--4-4-4-4--7-7-7-7--7-7-7-7--4-4-4-4|
E|-------------------2-2-2-2--5-5-5-5--------------------5-5-5-5---------|

e|-55555555--77777777--55555555--4--2-|
B|-55555555--99999999--55555555--5--4-|
G|-66666666--99999999--66666666--6--4-|
D|-77777777--99999999--77777777--6--4-|
A|-77777777--77777777--77777777--4--2-|
E|-55555555------------55555555-------|
   ........  ........  ........
   ^  palm mute               ^

e|-5~-------4~-------5~-------7~-------5~-------4~-|
B|-5~-------5~-------5~-------9~-------5~-------5~-|
G|-6~-------6~-------6~-------9~-------6~-------6~-|
D|-7~-------6~-------7~-------9~-------7~-------6~-|
A|-7~-------4~-------7~-------7~-------7~-------4~-|
E|-5~----------------5~----------------5~----------|



Post Chorus Part 1


Outro:
e|----------------------|
B|--55-44---------------|
G|--------66-4-6-4------|
D|-----------------7-6--| 6X
A|----------------------|
E|----------------------|

e|-0~----4~----0~----4~----0~----4~----0~----4--2--0~|
B|-0~----5~----0~----5~----0~----5~----0~----5--4--0~|
G|-1~----6~----1~----6~----1~----6~----1~----6--4--1~|
D|-2~----6~----2~----6~----2~----6~----2~----6--4--2~|
A|-2~----4~----2~----4~----2~----4~----2~----4--2--2~|
E|-0~----------0~----------0~----------------------0~|

END



Tabbed by killerqueen92
Tap to rate this tab
 
# A B C D E F G H I J K L M N O P Q R S T U V W X Y Z