Song name
# A B C D E F G H I J K L M N O P Q R S T U V W X Y Z

No Doubt - Bathwater tab

BATHWATER - NO DOUBT

Intro:
----------------|
----------------|
----------------|
----------------|
----------------|
--0--3--2--5----| x4

----------------|
----------------|
--------2-2-2---|
-2--2---2-2-2---| x4
-2--2---0-0-0---|
-0--0-----------|

VERSE 1:
You and your museum of lovers…
--------------------------------------------------------|
--------------------------------------------------------|
-------2-2-2---------2-2-2---------2-2-2---4--4--4-4-4--|
-2--2--2-2-2---2--2--2-2-2---2--2--2-2-2---4--4--4-4-4--| x2
-2--2--0-0-0---2--2--0-0-0---2--2--0-0-0---2--2--2-2-2--|
-0--0----------0--0----------0--0-----------------------|


CHORUS: I still love to wash in your old bathwater…
1:--------------------------------------|
2:--------------------------------------|
3:------------------7-7-7-7--5-5-5-5----|
4:5-5-5-5--7-7-7-7--7-7-7-7--5-5-5-5----|
5:5-5-5-5--7-7-7-7--5-5-5-5--3-3-3-3----|
6:3-3-3-3--5-5-5-5----------------------|

… I can’t Help it, you’re my…
1:--------------------------------------|
2:--------------------------------------|
3:------------------7-7-7-7--4-4-4-4----|
4:5-5-5-5--7-7-7-7--7-7-7-7--4-4-4-4----|
5:5-5-5-5--7-7-7-7--5-5-5-5--2-2-2-2----|
6:3-3-3-3--5-5-5-5----------------------|

----------------|
----------------|
--------2-2-2---|
-2--2---2-2-2---| x2
-2--2---0-0-0---|
-0--0-----------|

VERSE 2… (“Wanted and adored by…”)
Tap to rate this tab
# A B C D E F G H I J K L M N O P Q R S T U V W X Y Z