Song name
# A B C D E F G H I J K L M N O P Q R S T U V W X Y Z

No Doubt - Underneath It All tab

No Doubt
Underneath it all
Tabbed by Jake EDWARDS

verse


e|--4--4--2--2--------|  very short choppy notes
B|--5--5--2--2--------|
G|--4--4--2--2--------|
D|--------------------|
A|--------------------|
E|--------------------|

pre-chorus
e|--5--5--4--4--------|  play a few times then play
B|--5--5--4--4--------|   what is below
G|--6--6--4--4--------|
D|--------------------|
A|--------------------|
E|--------------------|

pre-chorus
e|--5--5--4--4--5--5--7--7-|
B|--5--5--4--4--5--5--7--7-|
G|--6--6--4--4--6--6--8--8-|
D|-------------------------|
A|-------------------------|
E|-------------------------|


chorus
e|--4--4--5--5--7--7--5--5-------|
B|--5--5--5--5--7--7--5--5-------|
G|--4--4--6--6--8--8--6--6-------|
D|-------------------------------|
A|-------------------------------|
E|-------------------------------|

End of chorus
e|-------------------|
B|-----------7-------|
G|--9--8---9---------|
D|-------------------|
A|-------------------|
E|-------------------|

Bridge
e|------------------------------|
B|-----5------5------5------5---|
G|----6-6----6-6----6-6----6-6--|
D|---6---6--6---6--6---6--6---6-|
A|--4---------------------------|
E|---------5------6------4------|

when Lady Saw sings play the chorus

great, easy song to play. Enjoy!]
Tap to rate this tab
# A B C D E F G H I J K L M N O P Q R S T U V W X Y Z