Song name
# A B C D E F G H I J K L M N O P Q R S T U V W X Y Z

No Doubt - Total Hate 9 tab

No Doubt - Total Hate 95
Submitted By: Anjel
EMail: chimchim221@yahoo.com
(J. Spence / C. Leal / G. Gonzalez)
Transcribed by Dikran Chekian 


This is such an awesome song and so fun to play once you get the rhythm down


the rhythm is like this (in the begining)down(d) up(u) up up up and continue with 
that for each chord


HERE WE GO


intro						
   d u u u u   d u u u u   d u u u u   d u d u
e|-6-6-6-6-6-|-5-5-5-5-5-|-6-6-6-6-6-|-2-2-4-4-|  
B|-6-6-6-6-6-|-6-6-6-6-6-|-6-6-6-6-6-|-2-2-4-4-|  
G|-6-6-6-6-6-|-6-6-6-6-6-|-6-6-6-6-6-|-3-3-5-5-|X3
D|-----------|-----------|-----------|---------|  
A|-----------|-----------|-----------|---------| 
E|-----------|-----------|-----------|---------| 


  d u u u u   d u u u u   d u u u u  
|-6-6-6-6-6-|-5-5-5-5-5-|-6-6-6-6-6-|-----2-----4-|
|-6-6-6-6-6-|-6-6-6-6-6-|-6-6-6-6-6-|---2-----4---|
|-6-6-6-6-6-|-6-6-6-6-6-|-6-6-6-6-6-|-3-----5-----|
|-----------|-----------|-----------|-------------|
|-----------|-----------|-----------|-------------|
|-----------|-----------|-----------|-------------|


Verse
  d u u u u   d u u u u   d u u u u   d d d d
|-6-6-6-6-6-|-5-5-5-5-5-|-6-6-6-6-6-|-5-5-5-5-|
|-6-6-6-6-6-|-6-6-6-6-6-|-6-6-6-6-6-|-6-6-6-6-|
|-6-6-6-6-6-|-6-6-6-6-6-|-6-6-6-6-6-|-6-6-6-6-|X3
|-----------|-----------|-----------|---------|
|-----------|-----------|-----------|---------|
|-----------|-----------|-----------|---------|


  d u u u u   d u u u u   d d d d d
|-6-6-6-6-6-|-5-5-5-5-5-|-2-2-4-4-6-|
|-6-6-6-6-6-|-6-6-6-6-6-|-2-2-4-4-6-|
|-6-6-6-6-6-|-6-6-6-6-6-|-3-3-5-5-6-|
|-----------|-----------|-----------|
|-----------|-----------|-----------|
|-----------|-----------|-----------|


the "TOTAL HAte" part.......
|-----|-----|---------|
|-----|-8-8-|---------|
|-4-4-|-8-8-|-3-3-3-3-|X4
|-6-6-|-8-8-|-4-4-4-4-|
|-6-6-|-6-6-|-4-4-4-4-|
|-4-4-|-----|-2-2-2-2-|


"you don't even know me" part...
follow toms rhythm
|-4-4-|-4-4-|  
|-4-4-|-6-6-|  
|-4-4-|-6-6-|X(play this all the way through the reggae part then it's totál hate)
|-----|-----|  
|-----|-----|  
|-----|-----|  


Total hate  is then moved up one signiture just play all chord to total hate
one whole step up


THERE IT IS
how that for my second song tabbed??


suggestions???
Tap to rate this tab
# A B C D E F G H I J K L M N O P Q R S T U V W X Y Z