Song name
# A B C D E F G H I J K L M N O P Q R S T U V W X Y Z

No Evidence - House Of Rock tab

INTRO
|-----------------------------|
|-----------------------------|
|-----------------------------|
|-----------------------------|
|--7-7--7--7--7--7------------|
|--5-5--5--5--5--5--5-6-5-7---|

|--------------------------------|
|--------------------------------|
|--------------------------------|
|--------------------------------|
|--7-7--7--7--7--7---------------|
|--5-5--5--5--5--5--7-6-7-5------|

|------------------------------|
|------------------------------|
|------------------------------|
|------------------------------|
|--7-7--7--7--7--7-------------|
|--5-5--5--5--5--5--5-6-5-7-- -|

|-----------------------------|--------------|
|-----------------------------|--------------|
|-----------------------------|--------------|
|-----------------------------|--------------|
|--7-7--7--7--7--7------------|-7-7--7--7--7-|
|--5-5--5--5--5--5--7-6-7-5---|-5-5--5--5--5-|
VERSE 1
|----------------------------------| 
|----------------------------------|
|---2-2--2--2--2--2----------------|
|---2-2--2--2--2--2----------------|
|---0-0--0--0--0--0-0h3-0h4^-------|
|----------------------------------|


|----------------------------------| 
|----------------------------------|
|---2-2--2--2--2--2----------------|
|---2-2--2--2--2--2----------------|
|---0-0--0--0--0--0-0h4-0h3^-------|
|----------------------------------|

|----------------------------------| 
|----------------------------------|
|---2-2--2--2--2--2----------------|
|---2-2--2--2--2--2----------------|
|---0-0--0--0--0--0-0h3-0h4^-------|
|----------------------------------|


|----------------------------------| 
|----------------------------------|
|---2-2--2--2--2--2----------------|
|---2-2--2--2--2--2----------------|
|---0-0--0--0--0--0-0h4-0h3^-------|
|----------------------------------|

|----------------|
|----------------|
|----2-2-2-2-2---|
|----2-2-2-2-2---|
|----0-0-0-0-0---|
|----------------|


SOLO 1
speed picking section
|-------------------------------------------------------------|
|-15^--15^-15^-12-14-15-12-14-15-12-14-15-12-14^~~------------|
|-------------------------------------------------------------|
|-------------------------------------------------------------|
|-------------------------------------------------------------|
|-------------------------------------------------------------|

HARMONIC AND SOME WHAT SLOW
|-15-13-12--15-13-12h13p12-11-15-13-12h13p12-10-15-13-12-10-9~~----------|
|------------------------------------------------------------------------|
|------------------------------------------------------------------------|
|------------------------------------------------------------------------|
|------------------------------------------------------------------------|
|------------------------------------------------------------------------|

|--9/12-9/12--9--11----|
|----------------------|
|----------------------|
|----------------------|
|----------------------|
|----------------------|

speed picking

|-12-12-12-13-13-13-14-14-14-15-15-15-16-16-16-17-17-17/22^~~--------------|
|--------------------------------------------------------------------------|
|--------------------------------------------------------------------------|
|--------------------------------------------------------------------------|
|--------------------------------------------------------------------------|
|--------------------------------------------------------------------------|

VERSE 2
|----------------------------------| 
|----------------------------------|
|---2-2--2--2--2--2----------------|
|---2-2--2--2--2--2----------------|
|---0-0--0--0--0--0-0h3-0h4^-------|
|----------------------------------|

|----------------------------------| 
|----------------------------------|
|---2-2--2--2--2--2----------------|
|---2-2--2--2--2--2----------------|
|---0-0--0--0--0--0-0h4-0h3^-------|
|----------------------------------|

|----------------------------------| 
|----------------------------------|
|---2-2--2--2--2--2----------------|
|---2-2--2--2--2--2----------------|
|---0-0--0--0--0--0-0h3-0h4^-------|
|----------------------------------|

|----------------------------------| 
|----------------------------------|
|---2-2--2--2--2--2----------------|
|---2-2--2--2--2--2----------------|
|---0-0--0--0--0--0-0h4-0h3^-------|
|----------------------------------|

|----------------|
|----------------|
|----2-2-2-2-2---|
|----2-2-2-2-2---|
|----0-0-0-0-0---|
|----------------|

SOLO 2
SPEED PICKING SECTION

|---------------------------------|
|---------------------------------|
|---------------------------------|
|-------------5-6-7-9-11-13-16----|
|-------0-5-7---------------------|
|-0-5-7---------------------------|

|-----------------------------------------------------------------------|
|-----------------------------------------------------------------------|
|-15-15-15-15-16-15-15-17-15-15-15-15-17-15-15-18-15-15-15-15-----------|
|-----------------------------------------------------------------------|
|-----------------------------------------------------------------------|
|-----------------------------------------------------------------------|

|-------------------------------|
|-------------------------------|
|-15-15-15-15-18-15-15-19-------|
|-------------------------------|
|-------------------------------|
|-------------------------------|
VERSE 3
|----------------------------------| 
|----------------------------------|
|---2-2--2--2--2--2----------------|
|---2-2--2--2--2--2----------------|
|---0-0--0--0--0--0-0h3-0h4^-------|
|----------------------------------|

|----------------------------------| 
|----------------------------------|
|---2-2--2--2--2--2----------------|
|---2-2--2--2--2--2----------------|
|---0-0--0--0--0--0-0h4-0h3^-------|
|----------------------------------|

|----------------------------------| 
|----------------------------------|
|---2-2--2--2--2--2----------------|
|---2-2--2--2--2--2----------------|
|---0-0--0--0--0--0-0h3-0h4^-------|
|----------------------------------|

|----------------------------------| 
|----------------------------------|
|---2-2--2--2--2--2----------------|
|---2-2--2--2--2--2----------------|
|---0-0--0--0--0--0-0h4-0h3^-------|
|----------------------------------|

|----------------|
|----------------|
|----2-2-2-2-2---|
|----2-2-2-2-2---|
|----0-0-0-0-0---|
|----------------|

OUTRO
|-----------------------------|
|-----------------------------|
|-----------------------------|
|-----------------------------|
|--7-7--7--7--7--7------------|
|--5-5--5--5--5--5--5-6-5-7---|

|--------------------------------|
|--------------------------------|
|--------------------------------|
|--------------------------------|
|--7-7--7--7--7--7---------------|
|--5-5--5--5--5--5--7-6-7-5------|

|------------------------------|
|------------------------------|
|------------------------------|
|------------------------------|
|--7-7--7--7--7--7-------------|
|--5-5--5--5--5--5--5-6-5-7--- |

|-----------------------------|--------------|
|-----------------------------|--------------|
|-----------------------------|--------------|
|-----------------------------|--------------|
|--7-7--7--7--7--7------------|-7-7--7--7--7-|
|--5-5--5--5--5--5--7-6-7-5---|-5-5--5--5--5-|
Tap to rate this tab
 
# A B C D E F G H I J K L M N O P Q R S T U V W X Y Z