Song name
# A B C D E F G H I J K L M N O P Q R S T U V W X Y Z

No Excuse - Disturbed Sound tab

“Disturbed Sound”
Intro
e-------------------------------------------------------------------------------------|
b-------------------------------------------------------------------------------------|
g-7-00-8-00-70-10-0-80-70-80------------------------------------------------------x2--|
d-------------------------------------------------------------------------------------|
a-------------------------------------------------------------------------------------|
E-------------------------------------------------------------------------------------|

e-----------------------------------------------------------------------|
b-----------------------------------------------------------------------|
g---------------------------------------------------------------7-~~~~--|
d-7-00-800-70-10-0-80-70-80----------------------------5-~~~~~----------|x2
a-----------------------------------------------------------------------|
E-----------------------------------------------------------------------|

e--------------------------------------------------------------------------------------------|
b--------------------------------------------------------------------------------------------|
g----7----7----7-----7------5------5-----5-----5-----10-----10---10----10----8---8---8----8--|
d-5----5----5----5------3-----3------3-----3------8------8-----8-----8------6---6----6---6---|x2
a--------------------------------------------------------------------------------------------|
E--------------------------------------------------------------------------------------------|


e----------------------------------------------------------------------------------------------------|
b----------------------------------------------------------------------------------------------------|
g----7---7----7---7-------5----5-----5----5--------3------3------3-------3--------5----5-----5----5--|
d-5---5---5----5------3-----3----3-----3------1-------1-----1-----1-----------3-----3-----3-----3----|
a----------------------------------------------------------------------------------------------------|x2
E----------------------------------------------------------------------------------------------------|

7~~~~~~~~~
5~~~~~~~~~

INTO REPEAT

7~~~~~~~~~~~
5~~~~~~~~~~~

e------------------------------------|
b------------------------------------|
g—7------7/5-----5/3-----3/0---------|
d—5------5/3-----3/1-----1/0-----x2--|
a------------------------------------|
E------------------------------------|

INTRO REPEAT


7~~~~~~~~~~~~~~~
5~~~~~~~~~~~~

THE END
Tap to rate this tab
 
# A B C D E F G H I J K L M N O P Q R S T U V W X Y Z