Song name
# A B C D E F G H I J K L M N O P Q R S T U V W X Y Z

No Fun At All - Walk A Mile For You tab

Band: No fun at All
Song: Walk a Mile for you
Album: Going Steady
Year: 2003

infos: p.heg@gmx.de


inrto 

e|---------------------------------------------------|
h|---------------------------------------------------|
g|--8-8--11--11--8-8--11--11--11--8-8--11--11--8-8-6-| 2x
d|--8-8-(11)(11)-8-8-(11)(11)(11)-8-8-(11)(11)-8-8-6-|
a|--6-6--9---9---6-6--9---9---9---6-6--9---9---6-6-4-|
E|---------------------------------------------------|


verse

e|------------------|         e|-------------|
h|------------------|         h|-------------|
g|--8-8-8-8-8-8-6-8-| 3x  end g|-4-----------|
d|--8-8-8-8-8-8-6-8-|         d|-4-few times-|
a|--6-6-6-6-6-6-6-6-|         a|-2-----------|
E|------------------|         E|-------------|


intro 1x


chorus

e|----------------------------------|
h|----------------------------------|
g|----------------------------------| 
d|--8-8-8-8-8-8-8-8-7-6-6-6-6-6-6-6-|
a|--8-8-8-8-8-8-8-8-7-6-6-6-6-6-6-6-|
E|--6-6-6-6-6-6-6-6-5-4-4-4-4-4-4-4-|


intro 1x

verse

intro

chorus

intro

solo

e|---------------------------------------------------------------------------|
h|---------------------------------------------------------------------------|
g|-10----10----12-10-12-12b14-14r12-10--10----10-----12-10-12-12b14-14r12-10-| 
d|-12b14-12b14--------------------------12b14-12b14--------------------------|
a|---------------------------------------------------------------------------|
E|---------------------------------------------------------------------------|

e|---------------------------------------------------------------|
h|---------------------------------------------------------------|
g|-13b15-15-15-15-13b15-15-15-15-13b15-15-15-15--15r13-11--------| 
d|--------------------------------------------------------13-----|
a|---------------------------------------------------------------|
E|---------------------------------------------------------------|


e|---------------------------------------------------------------------------------------|
h|---------------------------------------------------------------------------------------|
g|------------(9)------------(9)------------(9)--(9)--(9)--------------------------------| 
d|-------------9--------------9--------------9----9----9------11-11-11-11p9-11p9-11b13~~~|
a|-11-11-11-11----11--11-11-11---11--11-11-11---11---11---11-----------------------------|
E|---------------------------------------------------------------------------------------|



verse

intro

chorus 4x

intro

Tap to rate this tab
# A B C D E F G H I J K L M N O P Q R S T U V W X Y Z