Song name
# A B C D E F G H I J K L M N O P Q R S T U V W X Y Z

No Innocent Victim - White Washed Tomb tab

#------------Created with Taborama Tab Creator-----------------#
#------------------------------------------------------------------------------#

Title: white washed tomb
Artist: no innocent victim
Album: 

Instrument: Guitar

Tabbed by: steve (steve@incenserocks.de)

Tuning: Dropped D (D A D G B E)Riff 1

E|-------||
B|-------||
G|-------||
D|-2-1-0-||
A|-2-1-0-||
D|-2-1-0-||

Riff 2

E|-----------------------------||
B|-----------------------------||
G|---------------pm__________|-||
D|-0-0-0-1-0-0-4-0-0-0-0-0-0-0-||
A|-0-0-0-1-0-0-4-0-0-0-0-0-0-0-||
D|-0-0-0-1-0-0-4-0-0-0-0-0-0-0-||

Riff 3

E|-------------------|-------------------||
B|-------------------|-------------------||
G|-------------------|-------------------||
D|-0-1-0-0-0-0-0-4-1-|-0-1-0-0-0-4-3-0-4-||
A|-0-1-0-0-0-0-0-4-1-|-0-1-0-0-0-4-3-0-4-||
D|-0-1-0-0-0-0-0-4-1-|-0-1-0-0-0-4-3-0-4-||

Fill 1
       
E|---||
B|---||
G|---||
D|-0-||
A|-0-||
D|-0-||

Riff 4


E|-------------||
B|-------------||
G|-pm________|-||
D|-0-0-0-1-0-0-||
A|-0-0-0-1-0-0-||
D|-0-0-0-1-0-0-||


16 x Riff 1
4  x Riff 2
2  x Riff 3
1  x Fill 1
7  x Riff 1
4  x Riff 4
16 x Riff 1
4  x Riff 2
2  x Riff 3
1  x Fill 1
Tap to rate this tab
# A B C D E F G H I J K L M N O P Q R S T U V W X Y Z