Song name
# A B C D E F G H I J K L M N O P Q R S T U V W X Y Z

No Knife - Academy Flight Song tab

-------------------------------------------------------------------------------
			     Academy Flight Song - No Knife (www.noknife.net)
-------------------------------------------------------------------------------
Tabbed by: jedi mcnick
Email: serraton@csusb.edu

Tuning: standard


i think there are two guitar in this piece, but i really can't distinguish between the two. 


Intro

e|---8---8----8---8------4--4---4--4------6--6----6--6----6--6----6--6-------||
B|---9---9----9---9------6--6---6--6------8--8----8--8----8--8----8--8-------||
G|--10--10---10--10------6--6---6--6------9--9----9--9----9--9----9--9---2x--||
D|---------------------------------------------------------------------------||
A|---------------------------------------------------------------------------||
E|---------------------------------------------------------------------------||

Intro 2

e|-8---8---8-----------------------------------------------------------------||
B|------------9---9---9--------------8---8---8---8---9---9-------------------||
G|-----------------------8---8---8---------------------------8-----------8x--||
D|---------------------------------------------------------------------------||
A|---------------------------------------------------------------------------||
E|---------------------------------------------------------------------------||


Pre-verse

e|----8----------4---------------------3-------------------------------------||
B|----9----------6-----------8---------5-------------------------------------||
G|---10--(8x)----6--(8x)-----9--(2x)---5--(6x)---------------------------2x--||
D|---10----------6-----------9---------5-------------------------------------||
A|----8----------4-----------7---------3-------------------------------------||
E|---------------------------------------------------------------------------||


Verse - "someone crashed the party...."

e|------------------------------------------------|---8----------------------||
B|------------------------------------------------|---8----------------------||
G|---10--12--13--15--------------------17---------|---9------------------2x--||
D|---10--12--13--15----11---11---11----17-----3x--|--10----------------------||
A|----8--10--11--13----11---11---11----15---------|--10--(8x)----------------||
E|----------------------9----9----9---------------|---8----------------------||



Chorus - "this distance won't kill me..."

e|----1----------3---------4-------------------------------------------------||
B|----2----------4---------6-------------------------------------------------||
G|----3--(13x)---5--(3x)---6--(16)--------------------------------------2x---||
D|----3----------5---------6-------------------------------------------------||
A|----1----------3---------4-------------------------------------------------||
E|---------------------------------------------------------------------------||



Break

e|----1---1---1---1---1---1---1--/-3---3-----4-------------------------------||
B|----2---2---2---2---2---2---2--/-4---4-----6-------------------------------||
G|----3---3---3---3---3---3---3-s/-5---5-----6--(16x)-------------------2x---||
D|----3---3---3---3---3---3---3--/-5---5-----6-------------------------------||
A|----1---1---1---1---1---1---1--/-3---3-----4-------------------------------||
E|---------------------------------------------------------------------------||


Other guitar for that part

e|---------------------------------------------------------------------------||
B|---------------------------------------------------------------------------||
G|---------------5--5---------------------5--5-------------------------------||
D|---------3--3--------3--3---------3--3--------3--3-------------------------||
A|---4--4---------------------4--4-------------------------------------------||
E|---------------------------------------------------------------------------||


Pre-verse

e|----8----------4---------------------3-------------------------------------||
B|----9----------6-----------8---------5-------------------------------------||
G|---10--(8x)----6--(8x)-----9--(2x)---5--(6x)---------------------------2x--||
D|---10----------6-----------9---------5-------------------------------------||
A|----8----------4-----------7---------3-------------------------------------||
E|---------------------------------------------------------------------------||



Verse - "someone crashed the party...."

e|------------------------------------------------|---8----------------------||
B|------------------------------------------------|---8----------------------||
G|---10--12--13--15--------------------17---------|---9------------------2x--||
D|---10--12--13--15----11---11---11----17-----3x--|--10----------------------||
A|----8--10--11--13----11---11---11----15---------|--10--(8x)----------------||
E|----------------------9----9----9---------------|---8----------------------||



Chorus - "this distance won't kill me..."

e|----1----------3---------4-------------------------------------------------||
B|----2----------4---------6-------------------------------------------------||
G|----3--(13x)---5--(3x)---6--(16)--------------------------------------2x---||
D|----3----------5---------6-------------------------------------------------||
A|----1----------3---------4-------------------------------------------------||
E|---------------------------------------------------------------------------||


Break

e|----1---1---1---1---1---1---1--/-3---3-----4-------------------------------||
B|----2---2---2---2---2---2---2--/-4---4-----6-------------------------------||
G|----3---3---3---3---3---3---3-s/-5---5-----6--(16)--------------------2x---||
D|----3---3---3---3---3---3---3--/-5---5-----6-------------------------------||
A|----1---1---1---1---1---1---1--/-3---3-----4-------------------------------||
E|---------------------------------------------------------------------------||


Other guitar for that part

e|---------------------------------------------------------------------------||
B|---------------------------------------------------------------------------||
G|---------------5--5---------------------5--5-------------------------------||
D|---------3--3--------3--3---------3--3--------3--3-------------------------||
A|---4--4---------------------4--4-------------------------------------------||
E|---------------------------------------------------------------------------||


Little break part, you can help me with the chords


e|---------------------------------------------------------------------------||
B|---------------------------------------------------------------------------||
G|----------8------------8---------------------------------------------------||
D|------10-----8------------10--11--8--10------------------------------------||
A|---8------------11--8------------------------------------------------------||
E|---------------------------------------------------------------------------||

e|---------------------------------------------------------------------------||
B|---------------------------------------------------------------------------||
G|----------8------------9---------------------------------------------------||
D|------10-----8------------10-----------------------------------------------||
A|---8------------11--8---------8--10--11------------------------------------||
E|---------------------------------------------------------------------------||
				^	
				|

			this last part may be off.


Chorus - "this distance won't kill me..."

e|----1----------3---------4-------------------------------------------------||
B|----2----------4---------6-------------------------------------------------||
G|----3--(13x)---5--(3x)---6--(16)--------------------------------------2x---||
D|----3----------5---------6-------------------------------------------------||
A|----1----------3---------4-------------------------------------------------||
E|---------------------------------------------------------------------------||


Break

e|----1---1---1---1---1---1---1--/-3---3-----4-------------------------------||
B|----2---2---2---2---2---2---2--/-4---4-----6-------------------------------||
G|----3---3---3---3---3---3---3-s/-5---5-----6--(16)--------------------2x---||
D|----3---3---3---3---3---3---3--/-5---5-----6-------------------------------||
A|----1---1---1---1---1---1---1--/-3---3-----4-------------------------------||
E|---------------------------------------------------------------------------||



Other guitar for that part

e|---------------------------------------------------------------------------||
B|---------------------------------------------------------------------------||
G|---------------5--5---------------------5--5-------------------------------||
D|---------3--3--------3--3---------3--3--------3--3-------------------------||
A|---4--4---------------------4--4-------------------------------------------||
E|---------------------------------------------------------------------------||



Intro 2

e|-8---8---8-----------------------------------------------------------------||
B|------------9---9---9--------------8---8---8---8---9---9-------------------||
G|-----------------------8---8---8---------------------------8----------8x---||
D|---------------------------------------------------------------------------||
A|---------------------------------------------------------------------------||
E|---------------------------------------------------------------------------||


and that's all she wrote. email me corrections, and i know there are probably a few.

| /  slide up
| \  slide down
| h  hammer-on
| p  pull-off
| ~  vibrato
| +  harmonic
| x  Mute note
===============================================================================
Tap to rate this tab
# A B C D E F G H I J K L M N O P Q R S T U V W X Y Z