Song name
# A B C D E F G H I J K L M N O P Q R S T U V W X Y Z

No Knife - Lex Hit Reset tab

Lex Hit Reset
(transcribed by Jim Bodenschatz)


***TUNING***
(low to high) F-Bb-Eb-G#-C-f (1/2 step up)

Intro (0:00):

guitar 1 (distortion on):

--------------------------------------------------------|
-0--0--0-0-0---0--0--0-0-0---0--0--0-0-0---0--0--0-0-0--|
-0--0--0-0-0---0--0--0-0-0---0--0--0-0-0---0--0--0-0-0--|
-0--0--0-0-0---0--0--0-0-0---0--0--0-0-0---0--0--0-0-0--|
-0--0--0-0-0---0--0--0-0-0---0--0--0-0-0---0--0--0-0-0--|
-0--0--0-0-0---0--0--0-0-0---0--0--0-0-0---0--0--0-0-0--|


Verses (0:08 and 1:42):

guitar 1 (play 8 times):

------------------|
-5--0--0--0--0-0--|
-6--0--0--0--0-0--|
-7--0--0--0--0-0--|
-0--0--0--0--0-0--|
-0--0--0--0--0-0--|

guitar 2 (distortion on; play 4 times):

------------------|
-5----------------|
-6----------------|
-7----------------|
-0----------------|
-0----------------|


then (0:18 and 1:52):

guitar 2 (play 4 times):

------------------|
-5--0--0--0--0-0--|
-6--0--0--0--0-0--|
-7--0--0--0--0-0--|
-0--0--0--0--0-0--|
-0--0--0--0--0-0--|


then (0:27 and 2:01):

both guitars (play 8 times):

------------------|
-5----------------|
-6--7--7--7--9-9--|
-7--0--0--0--0-0--|
-0--7--7--7--7-7--|
-0----------------|


Choruses (0:45, 2:19, and 3:19*):

* - There is a definite third guitar part in the third chorus. Click here to jump to it.

*NOTE* I think there are 3 guitars here (the third just playing chords or something of the
like), but I can't decipher it if it's there.

guitar 1 (play 4 times):

---------7-7-5-----------7-7-5-----------7-7-5-----------------------------|
-----5-5-------------5-5-------------5-5-------7-5-------------------------|
-6-6-------------6-6-------------6-6----------------6---7---9-----------6--|
----------------------------------------------------------------7---9------|
---------------------------------------------------------------------------|
---------------------------------------------------------------------------|

guitar 2 (play 4 times):

---------7-7-5-----------7-7-5-----------7-7-5-------------------------------|
-----5-5-------------5-5-------------5-5-------7-5---------------------------|
-6-6-------------6-6-------------6-6----------------6-6-7-7-9-9---------6-6--|
----------------------------------------------------------------7-7-9-9------|
-----------------------------------------------------------------------------|
-----------------------------------------------------------------------------|


Bridges (1:21 and 2:56):

guitar 1:

-----------------------------------------------------------------|
-----------------------------------------------------------------|
---------8----4-4-7-----4-4-7------------------------------------|
-----------------------------------------------------------------|
---------7----2-2-5-----2-2-5----------7/9\7--2-2-2---2-2-2-2----|
-4-4-0-0-----------------------4-4-0-0--------------3---------3--|

guitar 2 (play twice):

-----------------------------------------------------------------|
-----------------------------------------------------------------|
---------8-------------------------------------------------------|
-----------------------------------------------------------------|
---------7--2-2-2---2-2-2-2------------7/9\7--2-2-2---2-2-2-2----|
-4-4-0-0----------3---------3--4-4-0-0--------------3---------3--|


then (1:31 and 3:05):

guitar 1:

-----------------------------------------------------------------|
--------------------------------------------------------------0--|
---------8---4-4-7--4-4-7-------------------------------------0--|
--------------------------------------------------------------0--|
---------7---2-2-5--2-2-5----------7/9\7--2-2-2---2-2-2-2-----0--|
-4-4-0-0-------------------4-4-0-0--------------3---------3/--0--|


Interlude (3:14):

guitar 1:

--------------------------------------------------------|
-5-5-5-5-5-5-5-5-5-5-5-5-9-9-9-9-9-9-12-12-12-12-12-12--|
--------------------------------------------------------|
--------------------------------------------------------|
--------------------------------------------------------|
--------------------------------------------------------|

guitar 2:

--------------------------------------------------------|
--------------------------------------------------------|
-9-9-9-9-9-9-9-9-9-9-9-9-4-4-4-4-4-4--4--4--4--4--4--4--|
--------------------------------------------------------|
--------------------------------------------------------|
--------------------------------------------------------|


Third Chorus (3:19):

guitar 3 (distortion on; tremolo picking; play twice):

-9--9--9--9--9--9--12--12--12--12--12--12------------------------------|
-----------------------------------------------------------------------|
-------------------------------------------6/9--9/11-----11-9----11-9--|
-----------------------------------------------------------------------|
-------------------------------------------4/7--7/-9--12------12-------|
-----------------------------------------------------------------------|


then (3:37):

guitar 3:

-------------------------------------------------|
-------------------------------------------------|
-6/9--6/9--6/9--6/9--6/9--9/11-----11-9----11-9--|
-------------------------------------------------|
-4/7--4/7--4/7--4/7--4/7--7/-9--12------12-------|
-------------------------------------------------|


Outro (3:55):

guitar 1:

----
----
----
----
-4--
----

guitars 2 & 3 : out


noknifetabs@hotmail.com
Tap to rate this tab
# A B C D E F G H I J K L M N O P Q R S T U V W X Y Z