Song name
# A B C D E F G H I J K L M N O P Q R S T U V W X Y Z

No Knife - Charades tab

Charades
(transcribed by Jim Bodenschatz)


***TUNING***
(low to high) F-Bb-Eb-G#-C-f (1/2 step up)

Intros (0:00 and 1:25):

guitars 1 & 2 (distortion on; play twice):

---------------------------------------------------|
---------------------------------------------------|
-4-4--4-4-4-4--4--4-4-4-4--4--4-4-4-4--4--4-4-4-4--|
---------------------------------------------------|
-2-2--2-2-2-2--2--2-2-2-2--2--2-2-2-2--2--2-2-2-2--|
-0-0--0-0-0-0--0--0-0-0-0--0--0-0-0-0--0--0-0-0-0--|


then (0:15):

both guitars:

-------------------------|
-------------------------|
-4--4--4--4--4--4--4--4--|
-------------------------|
-2--2--2--2--------------|
-3--3--3--3--2--2--2--2--|


then (0:18):

both guitars:

---------------------------------------------------|
---------------------------------------------------|
-4-4--4-4-4-4--4--4-4-4-4--4--4-4-4-4--4--4-4-4-4--|
---------------------------------------------------|
-2-2--2-2-2-2--2--2-2-2-2--2--2-2-2-2--2--2-2-2-2--|
-0-0--0-0-0-0--0--0-0-0-0--0--0-0-0-0--0--0-0-0-0--|


Verses (0:26 and 1:40):

both guitars (play twice):

---------------------------------------------------------------------|
---------------------------------------------------------------------|
-4-4-4-4-4--4-4-4-4-4--4-4-4-4-4--4-4-4-4-4/5--4-4-4-4-4--4-4-4-4-4--|
---------------------------------------------------------------------|
-2-2-2-2-2-------------2-2-2-2-2---------------3-3-3-3-3-------------|
-3-3-3-3-3--2-2-2-2-2--3-3-3-3-3--2-2-2-2-2---------------2-2-2-2-2--|


then (0:48 and 2:02):

both guitars:
                  *drums out
---------------------------------|
---------------------------------|
-4-4-4-4-4-4-4-4--0-0-0-0-0-0-0--|
------------------4-4-4-4-4-4-4--|
-2-2-2-2-2-2-2-2--2-2-2-3-3-3-3--|
-3-3-3-3-3-3-3-3-----------------|


Choruses (drums in; 0:52 and 2:05):

guitar 1 (play 4 times):

----------------------------------|
-------------------5\3-3/5--7--8--|
-4--4--4--4--4--4-----------------|
----------------------------------|
-2--3--2-----2--3-----------------|
----------3-----------------------|

guitar 2 (play 4 times):

----------------------------------|
----------------------------------|
-9--9--9--9--9--9--9\7-7/9-11-12--|
----------------------------------|
-7-----7-----7--------------------|
----7-----7-----7-----------------|


then (1:21):

guitar 1:

-----------------------|
-----------------------|
-----------------------|
-------------5-4-2--2--|
-------------5-4-2--2--|
-------------3-2-0--0--|

guitar 2:

-----------------------|
-----------------------|
-x-x-x-x-x-x-----------|
-x-x-x-x-x-x-5-4-2--2--|
-x-x-x-x-x-x-5-4-2--2--|
-------------3-2-0--0--|


Bridge (2:37):

guitar 1 (clean; play 8 times):

-------------------------------|
----------------------0--0--0--|
-x-x-x-x-x-x-x----x-x-0--0--0--|
-x-x-x-x-x-x-x-9b-x-x-0--0--0--|
-x-x-x-x-x-x-x----x-x-0--0--0--|
-------------------------------|

guitar 2 (clean; play 8 times):

-------------------------------|
-x-x-x-x-x-x-x-x-x-x-10h12-12--|
-x-x-x-x-x-x-x-x-x-x-----------|
-x-x-x-x-x-x-x-x-x-x-----------|
-------------------------------|
-------------------------------|
*NOTE* play these mutes near the 12th fret to get the proper harmonics to sound


then (2:52):

guitar 1 (play 8 times):

----------------|
-17--12--10-----|
-------------8--|
-14---9---7-----|
-------------6--|
----------------|

guitar 2 (play 8 times):

-----------------|
-17--12--14--15--|
-----------------|
-14---9--11--12--|
-----------------|
-----------------|


then (3:21 and 3:29):

guitar 1 (distortion on; play 3 times):

-------------------------------|
----------------------0--0--0--|
-x-x-x-x-x-x-x----x-x-0--0--0--|
-x-x-x-x-x-x-x-9b-x-x-0--0--0--|
-x-x-x-x-x-x-x----x-x-0--0--0--|
-------------------------------|

guitar 2 (distortion on; play 3 times):

-------------------------------|
-x-x-x-x-x-x-x-x-x-x-10h12-12--|
-x-x-x-x-x-x-x-x-x-x-----------|
-x-x-x-x-x-x-x-x-x-x-----------|
-------------------------------|
-------------------------------|
*NOTE* play these mutes near the 12th fret to get the proper harmonics to sound


then (3:27 and 3:34):

both guitars:

---------------------|
-12-12-12-12--12-12--|
---------------------|
--9--9--9--9---9-----|
--------------10--9--|
---------------------|


Outro (3:36):

both guitars:

---------------|
---------------|
-4-4-4--4-4-4--|
-2-2-2---------|
-3-3-0--2-2----|
--------3-3-2--|


noknifetabs@hotmail.com
Tap to rate this tab
# A B C D E F G H I J K L M N O P Q R S T U V W X Y Z