Song name
# A B C D E F G H I J K L M N O P Q R S T U V W X Y Z

No Knife - Angel Bomb tab

(transcribed by Jim Bodenschatz)

***TUNING***
(low to high) F-Bb-Eb-G#-C-f (1/2 step up)
Intro (0:00):

guitars 1 & 2 (distortion on; play twice):

-----------------------------------------------------------------|
-----------------------------------------------------------------|
--------------------------------------------------4-4-4-4-4-4-4--|
-2-2-2-5---5---4-2-2-2-5---5---4-2-2-2-5---5---4--5-5-5-5-5-5-5--|
-3-3-3-3-3-3-3-3-3-3-3-3-3-3-3-3-3-3-3-3-3-3-3-3-----------------|
-----------------------------------------------------------------|


then (drums in; 0:12 and 0:27):

both guitars:

-0--10-10-7-7-7--0--0--0-0-0-0--10-10-7-7-7--0--0--0-0-0-0--|
-8---8--8-8-8-8-10-10-10-8-8-8---8--8-8-8-8-10-10-10-8-8-8--|
-9---9--9-9-9-9--9--9--9-9-9-9---9--9-9-9-9--9--9--9-9-9-9--|
------------------------------------------------------------|
------------------------------------------------------------|
------------------------------------------------------------|


then (0:18 and 0:33):

both guitars:

-0--10-10-7-7-7--0--0--0-0-0-0--10-10-7-7-7--0--0--0-0-0--|
-8---8--8-8-8-8-10-10-10-8-8-8---8--8-8-8-8-10-10-10-8-8--|
-9---9--9-9-9-9--9--9--9-9-9-9---9--9-9-9-9--9--9--9-9-9--|
----------------------------------------------------------|
----------------------------------------------------------|
----------------------------------------------------------|


then (0:24):

both guitars:

-----0-------0-------0-------0----|
---0---0---0---0---0---0---0---0--|
-7-------7-------7-------7--------|
----------------------------------|
----------------------------------|
----------------------------------|


then (0:39):

both guitars:

-----0-------0-------0-------0---------0-------0-------0-------0----|
---0---0---0---0---0---0---0---0-----0---0---0---0---0---0---0---0--|
-7-------7-------7-------7---------7-------7-------7-------7--------|
--------------------------------------------------------------------|
--------------------------------------------------------------------|
--------------------------------------------------------------------|


Verses (0:45, 1:02, 1:44, 2:01, 3:15, and 3:33):

guitar 1 (clean; palm-muted; play 3 times):

-15-13-15-------12-10-12-10--------|
----------------------------10-12--|
-----------------------------------|
-----------------------------------|
-----------------------------------|
-----------------------------------|

guitar 2 (clean; palm-muted; play 3 times):
                               N.H.

-15-13-15-13----12-10-12-10--------|
----------------------------10-12--|
-----------------------------------|
-----------------------------------|
-----------------------------------|
-----------------------------------|

guitar 3 (keyboard; play 4 times):

-15-13-15-13-15-12-10-12-10--------------|
----------------------------12-12-10-12--|
-----------------------------------------|
-----------------------------------------|
-----------------------------------------|
-----------------------------------------|


then (0:54, 1:11, 1:53, 2:10, 3:24, and 3:42):

guitar 1:
                                      (N.H.-----------)

-15-13-15-------12-10-12-10-----------------------------|
----------------------------10-12---------12-----7------|
----------------------------------------------------12--|
---------------------------------------7----------------|
--------------------------------------------------------|
--------------------------------------------------------|

guitar 2:
                                      (N.H.-----------)

-15-13-15-13----12-10-12-10-----------------------------|
----------------------------10------------12-----7------|
----------------------------------------------------12--|
---------------------------------------7----------------|
--------------------------------------------------------|
--------------------------------------------------------|


Choruses (drums and bass out; 1:20, 2:19, and 3:50):

guitars 1 & 2 (distortion on; play twice):

                *drums and bass in

---------------------------------|
---------------------------------|
-----12-0-11-0-11-11-9--9--9--9--|
-0-0--0-0--0-0-------------------|
-0-0--0-0--0-0--9--9-7--7--7--7--|
------------------10-8--8--8--8--|

guitar 3 : out


then (1:31, 2:31, and 4:02):

guitars 1 & 2:

--------------------------------------------------------------------|
--------------------------------------------------------------------|
---------------11-11-9--9--9--9-------12-0-11-0-11-11-9--9--11--11--|
-7--7--7--7-----------------------0-0--0-0--0-0---------------------|
-0--0--0--0-----9--9-7--7--7--7---0-0--0-0--0-0--9--9-7--7---9---9--|
------------------10-8--8--8--8--------------------10-8--9--10--11--|


Bridge (2:43 and 2:57):

guitars 1 & 2:

-0--10-10-7-7-7--0--0--0-0-0-0--10-10-7-7-7--0--0--0-0-0-0--|
-8---8--8-8-8-8-10-10-10-8-8-8---8--8-8-8-8-10-10-10-8-8-8--|
-9---9--9-9-9-9--9--9--9-9-9-9---9--9-9-9-9--9--9--9-9-9-9--|
------------------------------------------------------------|
------------------------------------------------------------|
------------------------------------------------------------|

guitar 4 (distortion on, palm-muted):

------------------------------------------------------------|
------------------------------------------------------------|
-----7--7-7-7-7--------------5---7--7-7-7-7--------------5--|
-----------------5--5--5-7-9-----------------5--5--5-7-9----|
------------------------------------------------------------|
------------------------------------------------------------|


then (2:48 and 3:03):

guitars 1 & 2:

-0--10-10-7-7-7--0--0--0-0-0-0--10-10-7-7-7--0--0--0-0--|
-8---8--8-8-8-8-10-10-10-8-8-8---8--8-8-8-8-10-10-10-8--|
-9---9--9-9-9-9--9--9--9-9-9-9---9--9-9-9-9--9--9--9-9--|
--------------------------------------------------------|
--------------------------------------------------------|
--------------------------------------------------------|

guitar 4:

--------------------------------------------------------|
--------------------------------------------------------|
-----7--7-7-7-7--------------5---7--7-7-7-7--0--0--0-2--|
-----------------5--5--5-7-9----------------------------|
--------------------------------------------------------|
--------------------------------------------------------|


then (2:54):

guitars 1 & 2:

-0-----0-------0-------0-------0----|
-8---0---0---0---0---0---0---0---0--|
-9-7-------7-------7-------7--------|
------------------------------------|
------------------------------------|
------------------------------------|

guitar 4 (not muted):

----------------------|
----------------------|
-2-4---0-------0------|
---------0-2----------|
-----------------0----|
-------------------3--|


then (3:09):

guitars 1 & 2:

-0-----0-------0-------0-------0-------0-------0-------0-------0----|
-8---0---0---0---0---0---0---0---0---0---0---0---0---0---0---0---0--|
-9-7-------7-------7-------7-------7-------7-------7-------7--------|
--------------------------------------------------------------------|
--------------------------------------------------------------------|
--------------------------------------------------------------------|

guitar 4 (not muted):

--------------------------------------|
--------------------------------------|
-2-4---0-------0----------------------|
---------0-2--------------------------|
-----------------0--------------------|
-------------------3----------13\\\3--|


Outro (4:14):

guitars 1 & 2:

-0----0----0----0----0--|
-8----8----8----8----5--|
-9----9----9----9----4--|
---------------------5--|
------------------------|
------------------------|

guitar 3 : out
Tap to rate this tab
# A B C D E F G H I J K L M N O P Q R S T U V W X Y Z