Song name
# A B C D E F G H I J K L M N O P Q R S T U V W X Y Z

No Limit - Suspiscious Night tab

	No Limit - Suspiscious night	http://www.no-limit.cjb.net

	copyright No Limit 2001

	author: Philip Wellsj?	phiwel@ktg.se

	Intro/ Outro, guitar 1:

	e: |-0-2---------0-2----------0-2--------------3-2----------|
	b: |----3-3-3-3------3-3-3-3------3-3-3-3----3-----3--------|
	g: |----------------------------------------2---------------|

	Intro/ Outro and verse, guitar 2:

	e:|-----------------------------------------------------|
	b:|-----------------------------------------------------|
	g:|-7-7-7-7-7-7--4-4-4-4-4-4----------------------------|
	D:|-7-7-7-7-7-7--4-4-4-4-4-4--5-5-5-5-5-5--7-7-7-7-7-7--|
	A:|-5-5-5-5-5-5--2-2-2-2-2-2--5-5-5-5-5-5--7-7-7-7-7-7--|
	E:|---------------------------3-3-3-3-3-3--5-5-5-5-5-5--|
            ^ ^ ^ ^ ^ ^  ^ ^ ^ ^ ^ ^  ^ ^ ^ ^ ^ ^  ^ ^ ^ ^ ^ ^

	Chorus, guitar 1 & 2:

	e:|-----------------------------------------------------|
	b:|-----------------------------------------------------|
	g:|-7-7-7-7-7-7-----------------------------------------|
	D:|-7-7-7-7-7-7--4-4-4-4-4-4--5-5-5-5-5-5--7-7-7-7-7-7--|
	A:|-5-5-5-5-5-5--4-4-4-4-4-4--5-5-5-5-5-5--7-7-7-7-7-7--|
	E:|--------------2-2-2-2-2-2--3-3-3-3-3-3--5-5-5-5-5-5--|
            ^ ^ ^ ^ ^ ^  ^ ^ ^ ^ ^ ^  ^ ^ ^ ^ ^ ^  ^ ^ ^ ^ ^ ^


	Bridge, guitar 1 & 2

	e:|-------------------------------|
	b:|-------------------------------|
	g:|-7-----------------------------|
	D:|-7---------5--------7----------|
	A:|-5---------5--------7----------|
	E:|-----------3--------5----------|
	    ^         ^        ^


	The song goes like this:

	Intro, guitar 1		x2
	Intro, guitar 1 & 2	x4
	Verse, guitar 2		x4
	Chorus, guitar 1 & 2	x4
	Intro, guitar 1 & 2	x2
	Verse, guitar 2		x4
	Chorus, guitar 1 & 2	x4
	Bridge, guitar 1 & 2	x4
	Chorus, guitar 1 & 2	x4
	Outro, guitar 1 & 2	x4


	http://www.no-limit.cjb.net
Tap to rate this tab
# A B C D E F G H I J K L M N O P Q R S T U V W X Y Z