Song name
# A B C D E F G H I J K L M N O P Q R S T U V W X Y Z

No Lo Soporto - Nunca Ire tab

-------------------------------------------------------------------------------
			   "NUNCA IRÉ" - No Lo Soporto
-------------------------------------------------------------------------------
"No Lo Soporto" OFFICIAL WEBSITE: http://www.nolosoporto.com.ar

Tabbed by: Sebastián Ara. (Buenos Aires, Argentina)
Email MSN: playing.the.angel_@hotmail.com

Tuning: EADGBe


INTRO/VERSES:
e|-5-5-55x55-5-5x5-x-5-55x55-5-5-|
B|-6-6-66x66-6-6x5-x-5-55x55-5-5-|
G|-7-7-77x77-7-7x5-x-5-55x55-5-5-|
D|-7-7-77x77-7-7x5-x-5-55x55-5-5-|
A|-------------------------------|
E|-------------------------------|
[Listen to the strum]

Riff:
e|------------------|
B|(11)/13-----------|
G|--------12-/-9----|..
D|------------------|
A|------------------|
E|------------------|


Chorus:
e|------8--|
B|--8------|
G|9---9----|
D|---------|
A|---------|
E|---------|
[Repeats many times]


·Lyrics:

"No tengo más tiempo.
Más tiempo de disimular.
No puedo estar, donde nunca ire"

"Cuando me mires sabras,
Cuando me mires sabras."

"Que todo lo que brilla en mi, no es mas de lo que me empaña
Que todo lo que brilla en mi, no es mas de lo que me empaña"

"Puedo ser tan suave,
Tan suave entre tus manos,
Pero tarde o temprano entenderas
Que todo lo que toco, todo lo que toco quiero"

"Que todo lo que brilla en mi, no es mas de lo que me empaña
Que todo lo que brilla en mi, no es mas de lo que me empaña"

"Si alguna vez pierdo
Algo que tuve que cuidar
Si prefiero imaginar. Lo que nunca sere"

"Cuando me mires sabras
Cuando me mires sabras."

"Que todo lo que brilla en mi, no es mas de lo que me empaña.
Que todo lo que brilla en mi, no es mas de lo que me empaña.
Que todo lo que brilla en mi, no es mas de lo que me empaña.
Que todo lo que brilla en mi, no es mas de lo que me empaña.
Que todo lo que brilla en mi."

"Todo lo que brilla en mi, espera a donde nunca ire.
Todo lo que brilla en mi, esta a donde nunca ire."

Synth:
e|-----------1-----/8------\5---(12--|
B|-3----/5---------------------------|
G|-----------------------------------|
D|-----------------------------------|
A|-----------------------------------|
E|-----------------------------------|


| (x) ghost note
| /  slide
| x  mute
===============================================================================
Tap to rate this tab
# A B C D E F G H I J K L M N O P Q R S T U V W X Y Z