Song name
# A B C D E F G H I J K L M N O P Q R S T U V W X Y Z

No Lo Soporto - Avion tab

-------------------------------------------------------------------------------
			  Avion - No lo Soporto
-------------------------------------------------------------------------------
This is really a great band, this band have been working with
Gustavo Cerati (from Soda Stereo) who makes this band even Awesome!
Avion sounds great you should hear this song if you didnt.
Pretty easy and cool at the same time.
They are from Argentina, Buenos Aires.
www.nolosoporto.com.ar
Tabbed by: belen
Email: bel.c@hellokitty.com

Tuning: Standard

e|---6---5----6---5------------------------------------------------------------|
B|----5---5-----5---5/1--------------------------------------------------------|
G|-----------------------------------------------------------------------------|
D|-----------------------------------------------------------------------------|
A|-----------------------------------------------------------------------------|
E|-----------------------------------------------------------------------------|

e|------------3-5-6-7-6--------3-5-6-7-6---------------------------------------|
B|------4--5--------------4--5-------------------------------------------------|
G|-----------------------------------------------------------------------------|
D|-----------------------------------------------------------------------------|
A|-----------------------------------------------------------------------------|
E|-----------------------------------------------------------------------------|

e|---6---5----6---5------------------------------------------------------------|
B|----5---5-----5---5/1--------------------------------------------------------|
G|-----------------------------------------------------------------------------|
D|-----------------------------------------------------------------------------|
A|-----------------------------------------------------------------------------|
E|-----------------------------------------------------------------------------|

e|------------3-5-6-7-6--------3-5-6-7-6---------------------------------------|
B|------4--5--------------4--5-------------------------------------------------|
G|-----------------------------------------------------------------------------|
D|-----------------------------------------------------------------------------|
A|-----------------------------------------------------------------------------|
E|-----------------------------------------------------------------------------|

Please rate it and coment.


| /  slide up
| \  slide down
| h  hammer-on
| p  pull-off
| ~  vibrato
| +  harmonic
| x  Mute note
===============================================================================
Tap to rate this tab
 
# A B C D E F G H I J K L M N O P Q R S T U V W X Y Z