Song name
# A B C D E F G H I J K L M N O P Q R S T U V W X Y Z

No-man - Wherever There Is Light tab

Artist: No-Man
Song: Wherever there is light
Album: Schoolyard Ghosts


Standard Tuning, E B G D A E


Verse & Chorus:


------7---7---7-------7---7---7----------7---7---7-------5---5---5----------|
----5---5---5---5---4---4---4---4h5----5---5---5---5---5---5---5---5--------|
----------------------------------------------------------------------------|
----------------------------------------------------------------------------|
--7---------------6-----------------4----------------0----------------------|
----------------------------------------------------------------------------|



Outro: 


----------------------------------------------------------------------------|
-------5---5---5--------4---4---4-4h5-----5---5---5-------5---5---5---------|
-----4---4---4---4----4---4---4---------4---4---4---4---4---4---4---4-------|
----------------------------------------------------------------------------|
---7---------------6------------------4---------------0---------------------|
----------------------------------------------------------------------------|
         (Walk in and out of rooms...)

----------------------------------|
-------5--------------------------|
-----4---4------------------------|
----------------------------------|
---7-----------7~-----------------|
----------------------------------|



Lyrics:

Jane passes through the crowd,
outside the mercury lounge
She loves the city sounds
She feels that she's been found

Wherever there is light,
she follows

Wherever there is light, 
she follows


The bats are out again,
kids shout in Summer rain -
for real, imagined, shame,
For things they cannot name
She thinks of all their bright
tomorrows

Wherever there is light,
she follows.


Walk in and out of rooms
Fall in and out, in and out of love 

Walk in and out of rooms
Fall in and out, in and out of love 



______________


Best regards, 

Per

Tap to rate this tab
 
# A B C D E F G H I J K L M N O P Q R S T U V W X Y Z