Song name
# A B C D E F G H I J K L M N O P Q R S T U V W X Y Z

No Mayers 50 - Tim Turtle tab

Tim Turtle

Verse

     C
It's 3 a.m. and I can't sleep
     Am
The party's over, I feel weak
     F
The TV's on, but I don't listen
     G
I'm so confused, it's you I'm missing 

C
  Can't believe the open door
		      F  
Everyone seemed to ignore
			      G
Your bed is empty and you're not around
C
  Pinned your pictures everywhere
			F
No one really seemed to care
			      G
I won't give up to end this tragedy

PreChorus

Am			F
So here we start the search
		  C			G
Everywhere we're searching all night long

Am
Tim Turtle, I miss you
F			   G
 And I won't forget these times

Chorus

C	
 I know you since that I was born
				F
How come you leave and ruin my world
			    G
Hope that someday you will come back home

I can't believe the news today
I can't believe that you're away
Hope that someday you will find your way back home

Riff 1
  C	         Am		    F			  G
|---3---3---3---3--|--3---3---3---1--|--3---3---3---3---|-3-------|
|-1---1---1---1---1|----1---1---1---1|----1---1---1-----|---1-----|
|------------------|-----------------|------------------|---------|
|------------------|-----------------|------------------|---------|
|------------------|-----------------|------------------|---------|
|------------------|-----------------|------------------|---------|

Verse

The search goes on and on
Still I'm pretending you were here, here with me

  C	         
----|----------------------------------|---------------------------------|
----|----------------------------------|---------------------------------|
----|----------------------------------|---------------------------------|
-10-|-10----------------------------10-|-10----------------------------3-|
-10-|-10--10-10-10-10-8-8-8-8-7-7-7-10-|-10--10-10-10-10-8-8-8-8-7-7-7-3-|
-8--|-8-----------------------------8--|-8-----------------------------1-|
	|----------PM-------------|	   |----------PM-------------|

	   Don't leave me here too long               I just can't live 
|--------------------------------|---------------------|
|--------------------------------|---------------------|
|--------------------------------|---------------------|
|-3----------------------------5-|-5--5--5--5--5--5--5-|
|-3--10-10-10-10-8-8-8-8-7-7-7-5-|-5--5--5--5--5--5--5-|
|-1----------------------------3-|-3--3--3--3--3--3--3-|
    |----------PM-------------|	 
		     without you   You're my best friend ....

PreChorus

Tim Turtle, I miss you
And I won't forget these times

Chorus

I know you since that I was born
How come you leave and ruin my world
Hope that someday you will come back home

Bridge

Em
All the time I'm sitting here,
     F
I'm waiting for you to come back
Dm
You're the best, you're the best
    G
The best friend that I ever had

Chorus

I know you since that I was born
How come you leave and ruin my world
Hope that someday you will come back home
Tim Turtle, I miss you
And I won't forget these times
Won't forget these times
Won't forget these times
Won't forget these times 

Outro = Riff 1
Tap to rate this tab
# A B C D E F G H I J K L M N O P Q R S T U V W X Y Z