Song name
# A B C D E F G H I J K L M N O P Q R S T U V W X Y Z

No Mayers 50 - Break Out tab

Break Out // Record: Hopeless Romantic

Verse
Riff 1
  H	    	     			   F#
|----------------|------------------|------------------|---------------------|
|----------------|------------------|------------------|---------------------|
|----------------|------------------|------------------|---------------------|
|----------------|------------------|------------------|---------------------|
|-2-2-2-2--2-2-2-|------------------|-2-2-2-2--2-2-2---|---------------------|
|----------------|------------------|------------------|---------------------|

	       I never heard you say			That we can find a way

|----------------|------------------|------------------|---------------------|
|----------------|------------------|------------------|---------------------|
|----------------|------------------|------------------|---------------------|
|----------------|------------------|------------------|---------------------|
|----------------|------------------|------------------|---------------------|
|-2-2-2-2--2-2-2-|------------------|-2-2-2-2--2-2-2---|---------------------|

		For so long				And I ....

E		      F#
won't be waiting for years of hating

Riff 2 (Git II)
  H
|----------------|------------------|   (4x)
|----------------|------------------|
|----------------|------------------|
|-1-1-2-1--1-2-1-|------------------|
|----------------|------------------|
|----------------|------------------|

H
I never heard you say
That we can find a way
F#
For so long
       E                    F#
And I won't be waiting for years of hating

Pre Chorus

G#	   F#	   E		   F#
A hopeless romantic just searching for the answer
G#	   F#		E
Not knowing if I could find another
F#
I just wanna

Chorus
       H	
Break out
				    F#
When there's nothing left to do without
			      E
You, I'm better off going on way too long
Now I'm gone
F#
Don't know what to say

It doesn't matter any way out
When there's nothing left to do without
You, I'm better of going on way too long
Now I'm gone
Don't know what to say
It doesn't matter any way

Verse (Riff 1 & 2)

I never heard you say
That we can find a way
For so long
And I won't be waiting for years of hating

Pre Chorus

A hopeless romantic just searching for the answer
Not knowing if I could find another
I just wanna

Chorus

Break out
When there's nothing left to do without
You, I'm better off going on way too long
Now I'm gone
Don't know what to say
It doesn't matter any way out
When there's nothing left to do without
You, I'm better of going on way too long
Now I'm gone
Don't know what to say
It doesn't matter any way

Bridge
  G#		 F#		E	       F#    H F#
|--------------|--------------|--------------|------------| (2x)
|--------------|--------------|--------------|------------|
|-----4-4-4-4--|-----4-4-4-4--|-----4-4-4-4--|------------|
|--------------|--------------|--------------|-------4----|
|-6-6----------|-4-4----------|-2-2----------|-4-4-4-2-4--|
|-4-4----------|-2-2----------|-0-0----------|-2-2-2---2--|
					      |--PM-|
	
  G#		 F#		E	       F#    H F#
|--------------|--------------|--------------|------------|
|-----4-4-4-4--|-----4-4-4-4--|-----4-4-4-4--|------------|
|-----4-4-4-4--|-----4-4-4-4--|-----4-4-4-4--|------------|
|--------------|--------------|--------------|-------4----|
|-6-6----------|-4-4----------|-2-2----------|-4-4-4-2-4--|
|-4-4----------|-2-2----------|-0-0----------|-2-2-2---2--|
					      |--PM-|

  G#		 F#		E	       F#    
|--------------|--------------|--------------|-------------|
|-----4-4-4-4--|-----4-4-4-4--|-----4-4-4-4--|-------------|
|-----4-4-4-4--|-----4-4-4-4--|-----4-4-4-4--|-11-9--8--9--|
|--------------|--------------|--------------|-------------|
|-6-6----------|-4-4----------|-2-2----------|-9--7--6--7--|
|-4-4----------|-2-2----------|-0-0----------|-------------|


  G#	     F#	      E		    F#		
|----------|--------|-------------|--------------|
|----------|--------|-------------|--------------|
|-8--------|-6------|-9-----------|-8--9--8---6--|
|----------|--------|-------------|--------------|
|-6--------|-4------|-7-----------|-6--7--6---4--|
|----------|--------|-------------|--------------|

  A hopeless romantic just searching for the answer

  G#	     F#	         E	      F#	
|----------|-----------|-------------|--------------|
|----------|-----------|-------------|--------------|
|-8--------|-6---------|-4-----------|-6------------|
|----------|-----------|-2-----------|-4------------|
|-6--------|-4---------|-2-----------|-4------------|
|----------|-----------|-------------|--------------|
  Not knowing if I could find another   I just wanna ....

Chorus

Break out
When there's nothing left to do without
You, I'm better off going on way too long
Now I'm gone
Don't know what to say
It doesn't matter any way out
When there's nothing left to do without
You, I'm better of going on way too long
Now I'm gone
Don't know what to say
It doesn't matter any way out
When there's nothing left to do without
You, I'm better of going on way too long
Now I'm gone
Don't know what to say
It doesn't matter any way
It doesn't matter any way
It doesn't matter any way
It doesn't matter any way 

Outro
 E	  F#	  E	 F#	H F#  G#
|-------|-------|-------|-----------|-----|
|-------|-------|-------|-----------|-----|
|-------|-------|-------|-----------|-----|
|-------|-------|-------|-------4---|-6\--|
|-7--6--|-4--2--|-7--9--|-2-2-2-2-4-|-4\--|
|-------|-------|-------|-2-2-2---2-|-4\--|
			 |--PM-|
Tap to rate this tab
# A B C D E F G H I J K L M N O P Q R S T U V W X Y Z