Song name
# A B C D E F G H I J K L M N O P Q R S T U V W X Y Z

No Motive - Give Me Strength tab

    INTRO

     --3/4/3-------3/4/3--------4/3-------4/3---2-0-2-0
     ---------2-2-2-----2----------2/3/2--------------
     --------------------4-2--------------------------
     ------------------------4------------------------  x2
     -------------------------------------------------
     -------------------------------------------------

    CHORUS
     ---------------------------------------------
     ---------------------------------------------
     ---------------------------------------------
     -4-4-4-4-4-4-4-4--2-2-2-2-2-2-2-2------------
     -4-4-4-4-4-4-4-4--2-2-2-2-2-2-2-2------------
     -2-2-2-2-2-2-2-2--0-0-0-0-0-0-0-0------------

     ---------------------------------------------
     ---------------------------------------------
     -7-7-7-7---2-2-2-2---------------------------
     -7-7-7-7---2-2-2-2---------------------------
     -5-5-5-5---0-0-0-0---------------------------
     ---------------------------------------------
Tap to rate this tab
 
# A B C D E F G H I J K L M N O P Q R S T U V W X Y Z