Song name
# A B C D E F G H I J K L M N O P Q R S T U V W X Y Z

No Positivo - Crucigrama tab

las guitarras y bajo estan afinados en BEMOL
visiten el myspace
   "www.myspace.com/nopositivorock"

 intro : 1era guitarra

e------------------------------------------------------------------|
b------------------------------------------------------------------|
g-0-0-5--0-0-4--0-0-2--0-0-4--0-0-4/5--x8--------------------------|
d------------------------------------------------------------------|
a------------------------------------------------------------------|
e------------------------------------------------------------------|

2da guitarra

e------------------------------------------------------------------|
b------------------------------------------------------------------|
g------------------------------------------------------------------|
d-0-0-7--0-0-5--0-0-4--0-0-5--0-0-5/7--x8--------------------------|
a------------------------------------------------------------------|
e------------------------------------------------------------------|

silencio:
e--------------------------------------------------------------------------|
b--------------------------------------------------------------------------|
g--------------------------------------0-0-5--0-0-4--0-0-2--0-0-4--0-0-4/5-|
d-0-0-7--0-0-5--0-0-4--0-0-5--0-0-5/7--------------------------------------|
a--------------------------------------------------------------------------|
e--------------------------------------------------------------------------|


e--------------------------------------------------------------------------|
b--------------------------------------------------------------------------|
g-0-0-7--0-0-5--0-0-4--0-0-5--0-0-5/7-0-0--9--0-0-7--0-0-5--0-0-4--0-0-4/5-|
d-0-0-9--0-0-7--0-0-5--0-0-7--0-0-7/9-0-0-10--0-0-9--0-0-7--0-0-5--0-0-5/7-|
a--------------------------------------------------------------------------|
e--------------------------------------------------------------------------|

versos:
pall mute
e------------------------------------------------------|
b------------------------------------------------------|
g---------77777--55555--77777--------------------------|
d--55555--77777--55555--77777--x2----------------------|
a--55555--55555--33333--55555--------------------------|
e--33333-----------------------------------------------|


silencio:           < x2 >
e-------------------------------------------------------------------------|
b--------------------------------------------------------------------x2---|
g----------------------------x2-------0-0-5--0-0-4--0-0-2--0-0-4--0-0-4/5-|
d-0-0-7--0-0-5--0-0-4--0-0-5--0-0-5/7-------------------------------------|
a-------------------------------------------------------------------------|
e-------------------------------------------------------------------------|

verso  2 :
1era guit.
e-----------------------------------------------|
b-----------------------------------------------|
g--------7-----5-----7-----------7-----5-----7--|
d--5-----7-----5-----7-----5-----7-----5-----7--|
a--5-----5-----3-----5-----5-----5-----3-----5--|
e--3-----------------------3--------------------|

2da
e-----------------------------------------------|
b-----------------------------------------------|
g--------7-----5-----7-----12----7-----5-----7--|
d--5-----7-----5-----7--------------------------|
a--5-----5-----3-----5-----10----5-----3-----5--|
e--3--------------------------------------------|

coros :

e-------------------------------------------------------|
b-------------------------------------------------------|
g--55555--77777--99999----------------55555--77777------|
d--55555--77777--99999---55555--x2----55555--77777------|
a--33333--55555--77777---55555--------33333--55555------|
e------------------------33333--------------------------|


e---------------------------------------------------------|
b---------------------------------------------------------|
g-------777--555--9--7------------------------------------|
d--555--777--555--9--7--(x2) -----------------------------|
a--555--555--333--7--5------------------------------------|
e--333----------------------------------------------------|

          <<< solo >>>

e-------------------------------------------------------------------------|
b-12-10----10-12-10----10-12-10----10-12-10----10-13/15-13-12-12/1312-----|
g-------12----------12----------12----------12-------------------------12-|
d-------------------------------------------------------------------------|
a-------------------------------------------------------------------------|
e-------------------------------------------------------------------------|

e--12/1312----12-------------------------------------------------|
b-----------15----13-15--12-13----12-----------------------------|
g------------------------------14----12-14--11-12----11----------|
d-------------------------------------------------14----12-14----|
a----------------------------------------------------------------|
e----------------------------------------------------------------|


correo: frank_rocck@hotmail.com
Tap to rate this tab
# A B C D E F G H I J K L M N O P Q R S T U V W X Y Z