Song name
# A B C D E F G H I J K L M N O P Q R S T U V W X Y Z

No Positivo - No Eres Superior tab

                           "NO ERES SUPERIOR"
                              No positivo
                       "www.myspace.com/nopositivorock"

                      cont: frank_rocck@hotmail.com

camara les dejo este tab  saludos  y no seas gachos dejen
coment o algo no hehe


BEMOL.

intro:

guitarra 1:

e------------------------------------------------------------|
b------------------------------------------------------------|
g--**-9--**-9---**-8--**-8---**-9--**-9----**-8h9-**-8h9-----|
d--99-9--99-9---99-9--99-9---99-9--99-9----99-9---99-9-------|(repite mucho)
a--77-7--77-7---77-7--77-7---00-0--00-0----77-7---77-7-------|
E---------------77-7--77-7-----------------77-7---77-7-------|


guitarra 2:

e-------------------------------------------------------|
b-------------------------------------------------------|
g--**---**-----**------**-------**-----**------*--------|
d--66-6-66-6---66-6h9--66-6h9---77-7p6-77-7p6----6-7----|
a--77-7-77-7---77-7----77-7-----00-0---00-0----------7--|
E----------------------------------------------7--------|


(rift del verso)

    al re de dor y yo!! no te pue do en ten der pe ro

e---------------------------------------------------------|
b-------------------------------------------(~)-----------|
g----1/9-8---------(~)--9--8---9---8--9---8--9---8-(~)----|
d------------9--11--9-------------------------------9-----|
a---------------------------------------------------------|
E---------------------------------------------------------|

coro:
(
e---------------------------------------------|
b---------------------------------------------|
g---------------------------------------------|
d---7--77777----9---999999-----222222222------|
a---7--77777----9---999999-----222222222------|
E---5--55555----7---777777-----000000000------|      (2 veces)

e----------------------------------------------------------|
b----------------------------------------------------------|
g------------------------------999--888--999---101010--99--|
d----------------------------------------------------------|
a------------------------------777--666--777---9-9-9---77--|
E----------------------------------------------------------|  )


e----------------------------------------------------------------|
b----------------------------------------------------------------|
g---*-*-*-*-----------------------------------------*-*-*-*---6--|
d---7-7-7-7--999999--1010101010--99999---(2 veces)--7-7-7-7---6--|
a---7-7-7-7--999999--1010101010--99999--------------7-7-7-7---4--|
E---5-5-5-5--777777--9-9-9-9-9---77777--------------5-5-5-5---4--|

verso =
(rift del verso)=
coro=

pienses que es mejorooOOOR
 guitarra 2:
e-------------------------------------------------------------|
b-------------------------------------------------------------|
g-------------------------------------------------------------|
d---****-****-**--****-****-**--****-****-**--****-****-**----|
a---4444-4444-44--6666-6666-66--8888-8888-88--2222-2222-22----|
E---5555-5555-55--7777-7777-77--9999-9999-99--0000-0000-00----|


 guitarra 1:
e---------------------------------------------------------------------------|
b--10101010-10101010-1010-9999-9999-99--12121212-12121212-1212-9999-1010-99-|
g---------------------------------------------------------------------------|
d--7-7-7-7--7-7-7-7--7-7--6666-6666-66--9-9-9-9--9-9-9-9--9-9--6666-7777-66-|
a---------------------------------------------------------------------------|
E---------------------------------------------------------------------------|
                         (2 veces )


uoh!!!  oh oh


e------------------------------------------------------------------------|
b------------------------------------------------------------------------|
g----999999--------------------------------------------------------------|
d----999999--9999999----777777--999999---222222--999999---77777--999999--|
a----777777--9999999----777777--999999---222222--999999---77777--999999--|
E------------7777777----555555--777777---000000--777777---55555--777777--|


intro =

fin ....

leyenda:

(*)  pall mute
(h)  hammer on
(/)  slide
(~)  vibrato
(p)  pull of

saludos.. mi correo
frank_rocck@hotmil.com si quieres algun tab pidanmelo y se los haho
dejen cometarios si les gusta o si es sirvio
Tap to rate this tab
 
# A B C D E F G H I J K L M N O P Q R S T U V W X Y Z