No Positivo - Hacia Adelante tab

	        No! Positivo

      "Hacia Adelante"

http://www.facebook.com/nopositivo
http://www.myspace.com/nopositivorock
http://twitter.com/nopositivodf


Afinacion : Drop C#

Solo Puse Una Guitarra



Intro:
    xx   xx   x   xx   x         xx   xx      xx    x x
d#(------------------------------------------------------------|
a#(------------------------------------------------------------|
f#(---------------------------------7----7--9----9-----(~)-----|
c#(-00-4-00-5-0-7-00-7-0-7-5-4---55-5-55-5--7-77-7------*-(x2)-|
G#(-00-4-00-5-0-7-00-7-0-7-5-4---55-5-55-5--7-77-7--9-7-5------|
C#(-00-4-00-5-0-7-00-7-0-7-5-4---55-5-55-5--7-77-7-------------|

    xxxx                  xxxx    x      x    x x
d#(--------------------------------------------------------|
a#(----------------------------7----7-10--10---------------|
f#(----------------------------7----7--9---9---------------|
c#(-0000-4-5-7-77-7-5-4---5555-5--5-5--7-7-7------*---(x4)-|
G#(-0000-4-5-7-77-7-5-4---5555-5--5-5--7-7-7--7-5-4--------|
C#(-0000-4-5-7-77-7-5-4---5555-5--5-5--7-7-7---------------|

Verso:


d#(-----------------------------------------------------------|
a#(-----------------------------------------------------------|
f#(-------------------------------------------(~)-------------|
c#(--0-0--5/7-555-4444-5\4--0-0--5/7-555-4444--*-----(x4)-----|
G#(--0-0--5/7-555-4444-5\4--0-0--5/7-555-4444--5--------------|
C#(--0-0--5/7-555-4444-5\4--0-0--5/7-555-4444-----------------|

Pre-Coro:

     xxxx         xxx xxxx
d#(-------------------------------------------------------------|
a#(------------------------------------------------(~)----------|
f#(-------------------------------------------------*-(~)-------|
c#(--9999-9--0----555-4444--(x2)--00--00-00--000-0--4--*--------|
G#(--9999-9--0----555-4444--------00--00-00--000-0-----5--------|
C#(--9999-9--0----555-4444--------00--00-00--000-0--------------|

Coro:

    xx xxxx xxxx xxxx  xxxx xxxx xxxx xxxx   xxx... xxx...  xxx  xxx
d#(-----------------------------------------------------------------(x4)-|
a#(----------------------------------------------------------------------|
f#(----------------------------------------------------------------(~)---|
c#(-00-0000-0000-0000--0055-5555-5555-5555---000...)-555..)---------*----|
G#(-00-0000-0000-0000--0055-5555-5555-5555---000...)-555..)----9----7----|
C#(-00-0000-0000-0000--0055-5555-5555-5555---000...)-555..)-555--555-----|


A la mitad del Coro
"debes mirar hacia adelante!!! ,
            debes mirar hacia delante!!! "


d#(---------------------------------------------------5...)----------|
a#(---------------------------------------------------8...)----------|
f#(---------------------------------------------------7...)----------|
c#(---------------------------------------(x4)--0..)--5...)----------|
G#(---------------------------------------------0..)--5...)----------|
C#(--0-4h5--0-4h5--0-5h7--0-4h5--0-2h4p2--------0..)--5...)----------|


 Tapping:

d#(------------------------------------------------------------|
a#(----------------------------------------------------(~)-----|
f#(-------------------------------------------------(~)-*------|
c#(------t---------t--------t--------t---(x8)-4---5--7--7------|
G#(-4h5-12-0--5h7-12-0-7h9-12-0-5h7-12-0-----------------------|
C#(------------------------------------------------------------|


Breakdown
     xxxxxxxx   xxx         xxxxxxxx   xx
d#(--------------------------------------------------------|
a#(--------------------------------------------------------|
f#(--------------------------------------------------------|
c#(--00000000-5-000---(x2)--00000000-5-00-4--7-5---(x2)----|
G#(--00000000-5-000---------00000000-5-00-4--7-5-----------|
C#(--00000000-5-000---------00000000-5-00-4--7-5-----------|
  xx..)    xx       xx..)   xx        xx..)   xx         xx..)  xx   xxx
(----------------------------------------------------------------------------|
(----------------------------------------------------------------------------|
(--------------9-7--------------11-9---------------12-11-----------------(~)-|
(-00..)-5-00-4-5-4--00..)-5-00-4-7-5--00..)-5-00-4--9--7-00..)5-00-4------*--|
(-00..)-5-00-4-7-5--00..)-5-00-4-9-7--00..)-5-00-4-10--9-00..)5-00-4----7-5--|
(-00..)-5-00-4------00..)-5-00-4------00..)-5-00-4-------00..)5-00-4-000-----|

= Verso
= Pre-Coro:
= Coro


Fin.




      Leyenda:

    x = Pall mute
    * = Pinch Harmonic
    / = slide On
    \ = slide Of
    ~ = Vibrato
 ...) = repetir hasta la siguiente nota
    h = hammer on
    p = pull off
    t = tapping

Francisco Mellado Mtz
(frank_rocck@hotmail.com)
"http://www.facebook.com/frankpositivo"
Tap to rate this tab
 
# A B C D E F G H I J K L M N O P Q R S T U V W X Y Z