Song name
# A B C D E F G H I J K L M N O P Q R S T U V W X Y Z

No Remorse - Mother England tab

Mother England By: No Remorse

Main riff:

    A
E|--------------------------------------------------|
B|--------------------------------------------------|
G|--------------------------------------------------|
D|--2--2--4--2--2--2--4--2--2--2--4--2--2--2--4--2--|
A|--0--0--0--0--0--0--0--0--0--0--0--0--0--0--0--0--|
E|--------------------------------------------------|

    G                       E
E|--------------------------------------------------|
B|--------------------------------------------------|
G|--------------------------------------------------|
D|--------------------------------------------------|
A|--5--5--7--5--5--5--7--5--2--2--4--2--2--2--4--2--|
E|--3--3--3--3--3--3--3--3--0--0--0--0--0--0--0--0--|

Chorus:

    C        D        A
E|-----------------------------|
B|-----------------------------|
G|-----------------------------|
D|--5--------7--------2--------|
A|--3--------5--------0--------|
E|-----------------------------|
Tap to rate this tab
# A B C D E F G H I J K L M N O P Q R S T U V W X Y Z