Song name
# A B C D E F G H I J K L M N O P Q R S T U V W X Y Z

No Te Va Gustar - Cosa Linda tab

Acordes
  Bm   G  F#  Em
e|-2-|-3-|-2-|-0-|
B|-3-|-3-|-2-|-0-|
G|-4-|-4-|-3-|-0-|
D|-4-|-5-|-4-|-2-|
A|-2-|-5-|-4-|-2-|
E|---|-3-|-2-|-0-|

Intro

  Bm                    G                                             F#
e|---7-10-9--7-10-9--7-----12-12-12--10-10-10--9-9-9---------------------|
B|--7-------------------8-----------------------------12-12-12--11-11-11-|
G|-7---------------------------------------------------------------------|
D|-----------------------------------------------------------------------|
A|-----------------------------------------------------------------------|
E|-----------------------------------------------------------------------|
                  Bm          | Bm                G
e|----------------------------|----------------------------|
B|----------------------------|----------------------------|
G|---------9-12-11-9----------|----------------------------|
D|-9-11-12-----------12~11~12-|----------------------------|
A|----------------------------|-7-7-7--5-5-5--4-4-4--2-4-5-|
E|----------------------------|----------------------------|
  F#                         Bm
e|-3~2~0-----------------------------(7)--|
B|-------3~2~0--------2--2~3--2------(7)--|
G|-------------3----3-----------4----(7)--|
D|----------------4-----------------------|
A|----------------------------------------|
E|----------------------------------------|

1)
Bm                       G
cosas buenas tiene el hombre
       F#                     Bm
que a veces no las sabe disfrutar
Bm                   G
y se amarga por las voces
       F#                     Bm
que le dicen que no puede progresar
Bm                G
y se siente lastimado
       F#                         Bm
por lo poco que le importa a los demas
Bm                 G
y se siente defraudado
Em                   F#
si no tiene a quien juzgar

2)
Em    F#                Bm
cosa linda me trajo la vida
Em    F#         Bm
que no necesito mas
Em      F#              Bm
no le importa si tengo plata o si no
Em              F#
y no deja de cantar


1)
quiere estar en la ventana
y le dice al que sea dejame bailar
que le preste la guitarra
y no sabe la alegria que me da

2)
cosa linda me trajo la vida
que no necesito mas
no le importa si tengo plata o si no
y no deja de cantar

repite intro
Tap to rate this tab
# A B C D E F G H I J K L M N O P Q R S T U V W X Y Z